» » »

Bass-Ikly Bass tabs (ver.1)

Artists:  A B C D E F G H I J K L M N O P Q R S T U V W X Y Z # 

Bass-Ikly Bass tabs (ver.1)

Euphony
Rating:
0/5 (0 votes)

Hard to play? Try these video lessons and learn fast.
                Riff 1:
g:2-222-2-222-2-255-5-555-5-555-4-444-4-444-4-422-2-222-2-222|
d:3-333-3-333-3-333-3-333-3-333-3-333-3-333-3-322-2-222-2-222|
a:---------------------------------------------0-000-0-000-00|
e:-----------------------------------------------------------|
b:-----------------------------------------------------------|


Riff 2:
g:------------------------------------------------------------|
d:------------------------------------------------------------|
a:------------------------------------------------------------|
e:6-666-6-666-6-611-1-111-1-111-6-666-6-666-6-6---------------|
b:---------------------------------------------3-333-3-333-3-3|


Riff3 :
g:---------------------------------------------------------------|
d:---------------------------------------------------------------|
a:---------------------------------------------------------------|
e:6-666-6-666-6-6-1-111-1-111-1-1--------------------------------|
b:--------------------------------1-111-1-111-1-1-3-333-3-333-3-3|


End:
g:--------------------------|
d:--------------------------|
a:--------------------------|
e:6-6----6-6----6-6----6-6--|
b:----3------3------3------3|
            
Hard to play? Try these video lessons and learn fast. | Correct




comments powered by Disqus
↑ Back to top | Tablatures and chords are parodies/interpretations of the original songs. You may use it for private study, scholarship, research or language learning purposes only