» » »

E Town Concrete, Time 2 Shine Tabs (ver.1)

Artists:  A B C D E F G H I J K L M N O P Q R S T U V W X Y Z # 

Time 2 Shine Tabs (ver.1)

E Town Concrete Tabs
 Rating:
4/5 (4 votes)
Time 2 Shine lessons Tabs too difficult? Try these video lessons and learn fast
                E Town Concrete
DADGE

There are two guitarists in this one, but this tab is arranged for one.
Enjoy.

Intro			          then
E|----------------5-6-6-6-6-6-6-6-5-|---------5-----5-6-6-6-6-6-6-6-5-|
B|----------------3-4-4-4-4-4-4-4-3-|---------3-----3-4-4-4-4-4-4-4-3-|
G|----------------2-3-3-3-3-3-3-3-2-|---------2-----2-3-3-3-3-3-3-3-2-|
D|--0-0-0-0-0-0-0-------------------|-0-0-0-0---0-0-------------------|
A|--0-0-0-0-0-0-0-------------------|-0-0-0-0---0-0-------------------|
D|--0-0-0-0-0-0-0-------------------|-0-0-0-0---0-0-------------------|
PM  * * * * * * * 	            * * * *   * *

Verse
E|------------------------------------|
B|------------------------------------|
G|--8-6-7-7---------8-6-7-7-----------|
D|--8-6-7-7-0000-0008-6-7-7-0000-000--|
A|--6-4-5-5-0000-0006-4-5-5-0000-000--|
D|----------0000-000--------0000-000--|
PM          **** ***        **** ***

Chorus
E|----------6~~-------------5~~---------------------|
B|--------------------------------------------------|
G|----------------------------------3-----4---------|
D|--0-2-3-0---------0-2-3-0---------3-----4---2-----|
A|--0-2-3-0---------0-2-3-0---------1-----2---2-----|
D|--0-2-3-0---------0-2-3-0-------------------2-----|
PM  * * * *         * * * *  

Post Chorus 1 “Please excuse my f***ed up attitude”
E|----------------------------------|
B|----------------------------------|
G|--4-----3-------3-4-----5---------|
D|--4-----3-------3-4-----5---------|
A|--2-----1-------1-2-----3---------|
D|----------------------------------|

Post Chorus 2
E|-------------------------------------------------------------------|
B|-------------------------------------------------------------------|
G|------------------4---4---3---3-------------------4---4---3---3----|
D|--3---4-2---------4---4-0-3---3-0-3---4-2---------4---4-0-3---3-0--|
A|--3---4-2---------2---2-0-1---1-0-3---4-2---------2---2-0-1---1-0--|
D|--3---4-2---------------0-------0-3---4-2---------------0-------0--|
PM                        *       *                       *       *

Last Verse
E|------------------------------------|
B|------------------------------------|
G|--8-6-7-7------7778-6-7-7------777--|
D|--8-6-7-7-0000-7778-6-7-7-0000-777--|
A|--6-4-5-5-0000-5556-4-5-5-0000-555--|
D|----------0000------------0000------|
PM          ****            **** 

My band Mindclamp covers this song all the time.  Check us out 
            
Submit corrections

comments powered by Disqus
↑ Back to top | E Town Concrete Tabs for Time 2 Shine. Lyrics for acoustic guitar and electric guitar. Tablatures and chords are parodies/interpretations of the original songs. You may use it for private study, scholarship, research or language learning purposes only