>
 >
Shaydee

Shaydee Guitar Tabs

E Town Concrete - Shaydee chords, tabs, tablatures, lyrics

Guitar lessons | Add/correct | Request | Top 50 tabs Artists:  A B C D E F G H I J K L M N O P Q R S T U V W X Y Z 0-9

Shaydee Guitar Tabs – E Town Concrete

CD, Sheet music, Poster

Do you like Shaydee? Share with your friends now
Tabs
E Town Concrete
Tuned to DADGBE

Intro
E|--------------------------------------------------------------------
B|--------------------------------------------------------------------
G|--------------------------------------------------------------------
D|--0---------------1-------4---1---0---------------1-------4---1-----
A|--0---------------1-------4---1---0---------------1-------4---1-----
D|--0---------------1-------4---1---0---------------1-------4---1-----

Riff
E|--------------------------------------------------------------------
B|--------------------------------------------------------------------
G|----------7-----------7-------7-----------8----------11-------8-----
D|--0-0-0-0-7---0-0-0-0-7---0-0-7---0-0-0-0-8---0-0-0-011---0-0-8-----
A|--0-0-0-0-5---0-0-0-0-5---0-0-5---0-0-0-0-6---0-0-0-0-9---0-0-6-----
D|--0-0-0-0-----0-0-0-0-----0-0-----0-0-0-0-----0-0-0-0-----0-0-------
PM  * * * *     * * * *     * *     * * * *     * * * *     * *

Transition      Bridge                               last time
E|------------|------------------------------------|------------------
B|------------|------------------------------------|--3-3-3-3-3-3-3---
G|--7---------|----------2-------------------------|--2-2-2-2-2-2-2---
D|------------|------------4-----------------1-----|--0-0-0-0-0-0-0---
A|--5---------|--------------0-------------1---1---|--0-0-0-0-0-0-0---
D|------------|--0-----------------------1---------|--0-0-0-0-0-0-0---

Chorus
E|--------------------------------------------------------------------
B|------------------------3---3-3-3-----------------------3---3-3-3-3-
G|--8--7--------7---------2---2-2-2-8--7--------7---------2---2-2-2-2-
D|--8--7-0000-0-7-001--0--0---0-0-0-8--7-0000-0-7-001--0--0---0-0-0-0-
A|--6--5-0000-0-5-001--0--0---0-0-0-6--5-0000-0-5-001--0--0---0-0-0-0-
D|-------0000-0---001--0--0---0-0-0------0000-0---001--0--0---0-0-0-0-
PM       **** *   **   *                 **** *   **           

Piano interlude (no gtr)

Interlude end (strum chords)
E|------------------------------------
B|------------------------------------
G|--7------10------12------14---------
D|------------------------------------
A|--5------8-------10------12---------
D|------------------------------------

Riff 2
E|--------------------------------------------------------------------
B|--------------------------------------------------------------------
G|----------7---------------7---7-7---------5---------------5---5-5---
D|--0-0-0-0-7-------0-0-0-0-5---7-7-0-0-0-0-5-------0-0-0-0-5---5-5---
A|--0-0-0-0-5-------0-0-0-0-5---5-5-0-0-0-0-3-------0-0-0-0-3---3-3---
D|--0-0-0-0---------0-0-0-0---------0-0-0-0---------0-0-0-0-----------
PM  * * * *         * * * *         * * * *         * * * *     

Riff 3
E|--------------------------------------------------------------------
B|--------------------------------------------------------------------
G|--8-7-------------8--7--2--3--11--8-7-------------8--7--2--3--10----
D|--8-7-00-00-00-0008--7--2--3--11--8-7-00-00-00-0008--7--2--3--10----
A|--6-5-00-00-00-0006--5--0--1--9---6-5-00-00-00-0006--5--0--1--8-----
D|------00-00-00-000--------------------00-00-00-000------------------
PM      ** ** ** ***                    ** ** ** ***           

End on
E|------------------5-----------------
B|------------------3-----------------
G|----------------2-------------------
D|------1-------0---------------------
A|----1---1---0-----------------------
D|--1-------0-------------------------


Intro
Riff
Bridge
Chorus
Piano Interlude
Riff 2
Chorus
Riff 3
Bridge
End




my band: hxcmp3.com/mindclamp





Comments


Popular E Town Concrete tabs & chords
4 Tha Fame Tabs
4 The Fame Tabs
Battle Lines Tabs
Cycles Tabs
Do You Know What Its Like Intro Tabs
Justwatchastep Tabs
Nothanx Tabs
Punch The Walls Tabs
Time 2 Shine Tabs


Song lyrics



↑ Back to top | Tablatures and chords are parodies/interpretations of the original songs. You may use it for private study, scholarship, research or language learning purposes only
© 2014 AZChords.com Contact us | Privacy policy | DMCA | Add/correct tabs | Request tabs | Top 50 tabs