>
 >
Punch The Walls

Punch The Walls Guitar Tabs

E Town Concrete - Punch The Walls chords, tabs, tablatures, lyrics

Guitar lessons | Add/correct | Request | Top 50 tabs Artists:  A B C D E F G H I J K L M N O P Q R S T U V W X Y Z 0-9

Punch The Walls Guitar Tabs – E Town Concrete

CD, Sheet music, Poster

Do you like Punch The Walls? Share with your friends now
Tabs
E Town Concrete
Punch the Walls
Dropped D tuning

Verse
E|---------------------------------------------------------------------
B|---------------------------------------------------------------------
G|------------------10//------------6---6-6-6---6-6--------------------
D|--6-0-7-6---0-000-10//0-0---0-000-6---6-6-6---6-6-2---2-2-5---5-5----
A|--6-0-7-6---0-000-8-//0-0---0-000-4---4-4-4---4-4-2---2-2-5---5-5----
D|--6-0-7-6---0-000-----0-0---0-000-----------------2---2-2-5---5-5----
PM            * ***     * *   * *** 

Pre-chorus
E|------1-------------------------------1------------------------------
B|------1-------------------------------1------------------------------
G|--------------------------------------------------------------7-/-9--
D|--3---------------3-----2---------3---------------3-33332------------
A|--1---------------3-----2---------1---------------3-33332-----5-/-7--
D|------------------3-----2-------------------------3-33332------------
PM                                                    ****            

Chorus
E|---------------------------------------------------------------------
B|------------------------------5-----------------------1---0----------
G|--5--------2----5---4-4---4----3--5---------4---5---2----------------
D|--3--------2----3---2-2----2----3-3---------2---5---2----------------
A|--3--------2----3---2-2-----2-----3---------2---3---0----------------
D|--3-------0---00--00--------------3-------00--00--00----------7///---
PM          *   **  **                      **  **  **

  ---------------------------------------------------------------------
  ---------------------------------------------------------------------
  --5--------4----5---4---------4/5-5---------4---5--------------------
  --3--------2----3---2---0-0-0-2/3-3---------2---5--------------------
  --3--------2----3---2---0-0-0-2/3-3---------2---3--------------------
  --3-------0---00--00----0-0-0-----3-------00--00---------------------
            *   **  **    * * *             **  **    

Bridge
E|--8---7---5-----5---3---5----
B|--6---5---6-----6---5---3----
G|-----------------------------
D|-----------------------------
A|-----------------------------
D|-----------------------------

Outro is basically and F bar chord with some palm muted open D notes.
Listen to the CD.

Verse
Pre-chorus
Verse
Chorus
Bridhe
Pre-chorus
Outro





Comments


Popular E Town Concrete tabs & chords
4 Tha Fame Tabs
4 The Fame Tabs
Battle Lines Tabs
Cycles Tabs
Do You Know What Its Like Intro Tabs
Justwatchastep Tabs
Nothanx Tabs
Shaydee Tabs
Time 2 Shine Tabs


Song lyrics



↑ Back to top | Tablatures and chords are parodies/interpretations of the original songs. You may use it for private study, scholarship, research or language learning purposes only
© 2014 AZChords.com Contact us | Privacy policy | DMCA | Add/correct tabs | Request tabs | Top 50 tabs