» » »

E Town Concrete, Nothanx Tabs (ver.1)

Artists:  A B C D E F G H I J K L M N O P Q R S T U V W X Y Z # 

Nothanx Tabs (ver.1)

E Town Concrete Tabs
 Rating:
4/5 (4 votes)
Nothanx lessons Tabs too difficult? Try these video lessons and learn fast
1
                Here is E-Town's first track off of their first cd 'Time2shine' 
Tuning is standard, just drop the E to a D

------------------------------------------------|----------------------------------
------------------------------------------------|----------------------------------
------------------------------------------------|----------------------------------
------------------------------------------------|-5-5-5-5-5-4----------------------
------------------------------5---xxxxxxx-------|-3-3-3-3-3/2----------------------
0-0-1-1-5-5-5-5-5-5-----------5---xxxxxxx-------|--------------0-0-5-0-0-0-0-4/3-3-


---------------------------------------------------------|------------------------
---------------------------------------------------------|------------------------
---------------------------------------------------------|------------------------
4-5---------5-6------------------------3-----------------|-7----------------------
2-3---2-3---3-4---3-4------------------1---------------1-|-5----------------------
----0-2-3--0----0-3-4-0-3-0-4-4------------------------1-|------------------------

----------------------------------------------7777777777777777------------
-----------------------------0000000000000000-5555555555555555------------
-----------------------------0000000000000000-----------------------------

Fin.
            
Submit corrections

comments powered by Disqus
↑ Back to top | E Town Concrete Tabs for Nothanx. Lyrics for acoustic guitar and electric guitar. 1 Tablatures and chords are parodies/interpretations of the original songs. You may use it for private study, scholarship, research or language learning purposes only