>
 >
Justwatchastep

Justwatchastep Guitar Tabs

E Town Concrete - Justwatchastep chords, tabs, tablatures, lyrics

Guitar lessons | Add/correct | Request | Top 50 tabs Artists:  A B C D E F G H I J K L M N O P Q R S T U V W X Y Z 0-9

Justwatchastep Guitar Tabs – E Town Concrete

CD, Sheet music, Poster

Do you like Justwatchastep? Share with your friends now
Tabs
E Town Concrete
Dropped D

Intro
E|---------------------------------------------------------------------
B|------------------------------7*------------------------------7*-----
G|-------------------------------7*------------------------------7*----
D|--2-1-----------0-6600000-------7*2-1-----------0-6600000-------7*---
A|--2-1-----------0-6600000---------2-1-----------0-6600000------------
D|--2-1-----------0-6600000---------2-1-----------0-6600000------------
PM                    ****                            ****

Riff
E|---------------------------------------------------------------------
B|---------------------------------------------------------------------
G|--7-----5-----8-----7-----3---7---6-----6---------6-----6------------
D|--7-0-0-5-0-0-8-0-0-7-0-0-3-0-7-0-6-0-0-6-0-0-0-0-6-0-0-6-0-0-0-0----
A|--5-0-0-3-0-0-6-0-0-5-0-0-1-0-5-0-4-0-0-4-0-0-0-0-4-0-0-4-0-0-0-0----
D|----0-0---0-0---0-0---0-0---0---0---0-0---0-0-0-0---0-0---0-0-0-0----
PM    * *   * *   * *   * *   *   *   * *   * * * *   * *   * * * *

Chorus
E|-----------------------------------|---------------------------------
B|------------4---------------4------|---------------------------------
G|------------3---------------3------|---------------------------------
D|----1---2---1---2---1---2---1---2--|---2-----------1---3-------repeat
A|----1---2-------2---1---2-------2--|---2-----------1---3-------------
D|----1---2-------2---1---2-------2--|---2-----------1---3-------------

Riff 2
E|------------------------------------
B|------------------------------------
G|------------------------------------
D|--1-2-3-1-1-2-3-1-1-2-3-1-1-2-3-1---
A|--1-2-3-1-1-2-3-1-1-2-3-1-1-2-3-1---
D|--1-2-3-1-1-2-3-1-1-2-3-1-1-2-3-1---
PM  * * *   * * *   * * *   * * *  

Light part progression
D            B     Bb
Guitar strums the D chord

Riff 3
E|------------------------------------
B|------------------------------------
G|----------------------------8---8---
D|--7//-00-00-00-00-7//-00-0008-008---
A|--7//-00-00-00-00-7//-00-0006-006---
D|--7//-00-00-00-00-7//-00-000--00----
PM      ** ** ** **     ** ***  **                          

End
E|-----------
B|-----------
G|-----------
D|--2-1------
A|--2-1------
D|--2-1------
PM  * *                           

Intro
Riff
Chorus
Riff 2
Light part
Riff 3
Intro
Riff
Chorus
End





Comments


Popular E Town Concrete tabs & chords
4 Tha Fame Tabs
4 The Fame Tabs
Battle Lines Tabs
Cycles Tabs
Do You Know What Its Like Intro Tabs
Nothanx Tabs
Punch The Walls Tabs
Shaydee Tabs
Time 2 Shine Tabs


Song lyrics



↑ Back to top | Tablatures and chords are parodies/interpretations of the original songs. You may use it for private study, scholarship, research or language learning purposes only
© 2014 AZChords.com Contact us | Privacy policy | DMCA | Add/correct tabs | Request tabs | Top 50 tabs