» » »

E Town Concrete, Cycles Tabs (ver.1)

Artists:  A B C D E F G H I J K L M N O P Q R S T U V W X Y Z # 

Cycles Tabs (ver.1)

E Town Concrete Tabs
 Rating:
4/5 (4 votes)
Cycles lessons Tabs too difficult? Try these video lessons and learn fast
                Drop D

Main Riff/Intro
|------------------------------------------
|------------------------------------------
|------------------------------------------
|-7-7--7-7-10-10-10-10--5-5-5-5-3-3-3-2-2--
|-7-7--7-7-10-10-10-10--5-5-5-5-3-3-3-2-2--
|-7-7--7-7-10-10-10-10--5-5-5-5-3-3-3-2-2--

Verse
|----------------------
|----------------------
|----------------------
|-3-2-3-5-2---2-2-3-3--
|-3-2-3-5-2---2-2-3-3--
|-3-2-3-5-2---2-2-3-3--

Pre-Chorus
|------------------------------------------
|------------------------------------------
|------------------------------------------
|--5--1--4---5--1--4---5--1--4---5--1--4---
|--5--1--4---5--1--4---5--1--4---5--1--4---
|--5--1--4---5--1--4---5--1--4---5--1--4---

Chorus
|-------------------------------------
|-------------------------------------
|-------------------------------------
|-5-4-10-10-10-10--5-4--1-2-4--1-2-7--
|-5-4-10-10-10-10--5-4--1-2-4--1-2-7--
|-5-4-10-10-10-10--5-4--1-2-4--1-2-7--

Post-Chorus
|-------------------------------------------------------------
|-------------------------------------------------------------
|-------------------------------------------------------------
|-1-1-1-1-1-1-1-1-1-1-1-1-4-4-4-4-6-6-6-6-6-6-6-6-7-7-7-7-4-4-
|-1-1-1-1-1-1-1-1-1-1-1-1-4-4-4-4-6-6-6-6-6-6-6-6-7-7-7-7-4-4-
|-1-1-1-1-1-1-1-1-1-1-1-1-4-4-4-4-6-6-6-6-6-6-6-6-7-7-7-7-4-4-

The next section is the same but in a different rythm.

Look at what you've done...
|--------------
|--------------
|-7-3-6-2-4-5--
|-7-3-6-2-4-5--
|-5-1-4-0-2-3--
|--------------
            
Submit corrections

comments powered by Disqus
↑ Back to top | E Town Concrete Tabs for Cycles. Lyrics for acoustic guitar and electric guitar. Tablatures and chords are parodies/interpretations of the original songs. You may use it for private study, scholarship, research or language learning purposes only