>
 >
Battle Lines

Battle Lines Guitar Tabs

E Town Concrete - Battle Lines chords, tabs, tablatures, lyrics

Guitar lessons | Add/correct | Request | Top 50 tabs Artists:  A B C D E F G H I J K L M N O P Q R S T U V W X Y Z 0-9

Battle Lines Guitar Tabs – E Town Concrete

CD, Sheet music, Poster

Do you like Battle Lines? Share with your friends now
Tabs
E Town Concrete
DADGBE

Intro
E|--------------------------------------|
B|--------------------------------------|
G|--------------------------------------|
D|--0---0-1---0-1-0-3-1-0-1---3-1-3-0---|
A|--0---0-1---0-1-0-3-1-0-1---3-1-3-0---|
D|--0---0-1---0-1-0-3-1-0-1---3-1-3-0---|

Verse 1
E|------------------------------------------------------------------
B|------------------------------------------------------------------
G|------------------7//-----------------------------7-------8-------
D|--0-0-0---0---0---7//-----3---1-3-0-0-0---0---0---7-------8---0-0-
A|--0-0-0---0---0---5//-----3---1-3-0-0-0---0---0---5-------6---0-0-
D|--0-0-0--0---0-----------3---1-3-0-0-0---0---0---------------0-0-
PM  - - -   -   -                   - - -   -   -               - - 

End verse 1
E|---------------|
B|---------------|
G|--8-----10-----|
D|--8-----10-----|
A|--6-----8------|
D|---------------|

Chorus
E|------------------------------------------------------------------
B|--10-----------10-11--------------------------------11------------
G|----------------------------------------------------10------------
D|--7-0-0-0-0-0-0-7-8-8-8-8-8-8-8-8---------repeat----8-------------
A|----0-0-0-0-0-0-----8-8-8-8-8-8-8----------then-----8-------------
D|----0-0-0-0-0-0-----8-8-8-8-8-8-8----------strum----8-------------
PM    - - - - - -     - - - - - - - 

 ----------------------------------------------------------------------------
 -18-----17-----15---10------------------------------------------------------
 ------------------------------------12-------------------12-9---------------
 -15-0-0-14-0-0-12-0-8-8-8-8-8-8-8-8-10-10-10-10-10-10-10-10-7-7-7-7-7-7-7-7-
 ----0-0----0-0----0---8-8-8-8-8-8-8-10-10-10-10-10-10-10-10-7-7-7-7-7-7-7-7-
 ----0-0----0-0----0---8-8-8-8-8-8-8-10-10-10-10-10-10-10-10-7-7-7-7-7-7-7-7-
     - -    - -    -   - - - - - - -    -- -- -- -- -- --      - - - - - - - 

Verse 2 variation, played like this 2x, then same as verse 1 2x
E|--1---2---3---4---1---2---3---4-----------------------------------
B|------------------------------------------------------------------
G|----------------------------------8-8-8-8-7-7-7-7-8-8-8-8-8-7-7-7-
D|--0-0-0---0---0---0-0-0---3---1-3-8-8-8-8-7-7-7-7-8-8-8-8-8-7-7-7-
A|--0-0-0---0---0---0-0-0---3---1-3-6-6-6-6-5-5-5-5-6-6-6-6-6-5-5-5-
D|--0-0-0--0---0---0-0-0---3---1-3---------------------------------
PM  - - -   -   -   - - -           


Transition into key change
E|--------------------------------------|
B|--------------------------------------|
G|--9-------5--------4--------5---------|
D|--9-------5--------4--------5---------|
A|--7-------3--------2--------3---------|
D|--------------------------------------|

Last Chorus
E-----------------------------then-strum
B-12----10-----7---8-------------------8
G--9-----7-----4---5-------------------7
D--9-0-0-7-0-0-4-0-5-------------------5
A----0-0---0-0---0---5-5-5-5-5-5-5-5---5
D----0-0---0-0---0---5-5-5-5-5-5-5-5---5
PM   - -   - -   -   - - - - - - - -  

  ------------------------------------------
  ------------------------------------------
  --9-------------9-5-----------------------
  --9-0-0-0-0-0-0-9-5-----------------------
  --7-0-0-0-0-0-0-7-3-3-3-3-3---------------
  ----0-0-0-0-0-0-----5-5-5-5-5555555-------
      - - - - - -     - - - -

check out my band: hxcmp3.com/mindclamp





Comments


Popular E Town Concrete tabs & chords
4 Tha Fame Tabs
4 The Fame Tabs
Cycles Tabs
Do You Know What Its Like Intro Tabs
Justwatchastep Tabs
Nothanx Tabs
Punch The Walls Tabs
Shaydee Tabs
Time 2 Shine Tabs


Song lyrics



↑ Back to top | Tablatures and chords are parodies/interpretations of the original songs. You may use it for private study, scholarship, research or language learning purposes only
© 2014 AZChords.com Contact us | Privacy policy | DMCA | Add/correct tabs | Request tabs | Top 50 tabs