>
 >
Blood Of Hatred

Blood Of Hatred Guitar Tabs

Eternal Tears Of Sorrow - Blood Of Hatred chords, tabs, tablatures, lyrics

Guitar lessons | Add/correct | Request | Top 50 tabs Artists:  A B C D E F G H I J K L M N O P Q R S T U V W X Y Z 0-9

Blood Of Hatred Guitar Tabs – Eternal Tears Of Sorrow

CD, Sheet music, Poster

Do you like Blood Of Hatred? Share with your friends now
Tabs
Intro:
Riff: A
e|--------------------------------------------------------|
B|--------------------------------------------------------|
G|--------------------------------------------------------|
D|--------------------------------------------------------|
A|-9-9---9-9---9-9-----9-9---9-9---9-9--------------------|
E|-7-7---7-7---7-7-----7-7---7-7---7-7--------------------|
   .     .     .       .     .     .

Riff: B
e|--------------------------------------------------------|
B|--------------------------------------------------------|
G|--------------------------------------------------------|
D|--------------------------------------------------------|
A|-----9---9-9-10-10-9p7----7h9--------9---9--9p7---------|
E|-7-7---7---------------10-------7-7----7--------9h10p9p7|
   . .   .                        . .    .

e|--------------------------------------------------------|
B|--------------------------------------------------------|
G|--------------------------------------------------------|
D|--------------------------------------------------------|
A|-----9---9-9-10-10-9p7----7h9--------9---9--9p7---------|
E|-7-7---7---------------10-------7-7----7--------9h10p9p7|
   . .   .                        . .    .

e|--------------------------------------------------------|
B|--------------------------------------------------------|
G|--------------------------------------------------------|
D|--------------------------------------------------------|
A|-----9---9-9-10-10-9p7----7h9--------9---9--9p7---------|
E|-7-7---7---------------10-------7-7----7--------9h10p9p7|
   . .   .                        . .    .

e|--------------------------------------------------------|
B|--------------------------------------------------------|
G|--------------------------------------------------------|
D|--------------------------------------------------------|
A|-----9---9-9-10-10-9p7----7h9--------9---9--9p7---------|
E|-7-7---7---------------10-------7-7----7--------9h10p9p7|
   . .   .                        . .    .

Riff: C
e|--------------------------------------------------------|
B|--------------------------------------------------------|
G|--------------------------------------------------------|
D|--------------------12-(11)-------12-(11)---------------|
A|-9-9---11---12-12---10-(-9)-10-10-10-(-9)-8-------------|
E|-7-7----9---10-10------------8--8---------6-7h9h10p9p7p0|

e|--------------------------------------------------------|
B|--------------------------------------------------------|
G|--------------------------------------------------------|
D|--------------------12-(11)-------12-(11)---------------|
A|-9-9---11---12-12---10-(-9)-10-10-10-(-9)-8-------------|
E|-7-7----9---10-10------------8--8---------6-7h9h10p9p7p0|

e|--------------------------------------------------------|
B|--------------------------------------------------------|
G|--------------------------------------------------------|
D|--------------------12-(11)-------12-(11)---------------|
A|-9-9---11---12-12---10-(-9)-10-10-10-(-9)-8-------------|
E|-7-7----9---10-10------------8--8---------6-7h9h10p9p7p0|

e|--------------------------------------------------------|
B|--------------------------------------------------------|
G|--------------------------------------------------------|
D|--------------------12-(11)-------12-(11)---------------|
A|-9-9---11---12-12---10-(-9)-10-10-10-(-9)-8-------------|
E|-7-7----9---10-10------------8--8---------6-7h9h10p9p7p0|

Riff: D
e|--------------------------------------------------------|
B|--------------------------------------------------------|
G|--------------------------------------------------------|
D|--------------------------------------------------------|
A|-9-9-----9-5---9-5---9-5---9-5--------------------------|
E|-7-7-----7-3---7-3---7-3---7-3-3-3-3-3------------------|
   .                             . . . .

e|--------------------------------------------------------|
B|--------------------------------------------------------|
G|--------------------------------------------------------|
D|--------------------------------------------------------|
A|-9-5---9-5---9-5---9-5----------------------------------|
E|-7-3---7-3---7-3---7-3-3-3-3-3--------------------------|
                         . . . .

Riff: E
e|--------------------------------------------------------|
B|--------------------------------------------------------|
G|--------------------------------------------------------|
D|--------------------------------------------------------|
A|-9-9---11---12-12---11---9-9---7---5-5---7--------------|
E|-7-7----9---10-10----9---7-7---5---3-3---5--------------|
   . .    .   .   .    .   . .   .   . .

e|--------------------------------------------------------|
B|--------------------------------------------------------|
G|--------------------------------------------------------|
D|--------------------------------------------------------|
A|-9-9---11---12-12---11---9-9---7---5-5---7--------------|
E|-7-7----9---10-10----9---7-7---5---3-3---5--------------|
   . .    .   .   .    .   . .   .   . .

Riff: F
e|--------------------------------------------------------|
B|--------------------------------------------------------|
G|--------------------------------------------------------|
D|--------------------------------------------------------|
A|-5/9-9--9\5-3--5/9-9--9\5-5--5/9-9--9\5-5--5/9-9--9\5-5-|
E|-3/7-7--7\3-3--3/7-7--7\3-3--3/7-7--7\3-3--3/7-7--7\3-3-|

e|--------------------------------------------------------|
B|--------------------------------------------------------|
G|--------------------------------------------------------|
D|--------------------------------------------------------|
A|-5/9-9--9\5-3--5/9-9--9\5-5--5/9-9--9\5-5--5/9-9--9\5-5-|
E|-3/7-7--7\3-3--3/7-7--7\3-3--3/7-7--7\3-3--3/7-7--7\3-3-|

Riff: C
e|--------------------------------------------------------|
B|--------------------------------------------------------|
G|--------------------------------------------------------|
D|--------------------12-(11)-------12-(11)---------------|
A|-9-9---11---12-12---10-(-9)-10-10-10-(-9)-8-------------|
E|-7-7----9---10-10------------8--8---------6-7h9h10p9p7p0|

e|--------------------------------------------------------|
B|--------------------------------------------------------|
G|--------------------------------------------------------|
D|--------------------12-(11)-------12-(11)---------------|
A|-9-9---11---12-12---10-(-9)-10-10-10-(-9)-8-------------|
E|-7-7----9---10-10------------8--8---------6-7h9h10p9p7p0|

e|--------------------------------------------------------|
B|--------------------------------------------------------|
G|--------------------------------------------------------|
D|--------------------12-(11)-------12-(11)---------------|
A|-9-9---11---12-12---10-(-9)-10-10-10-(-9)-8-------------|
E|-7-7----9---10-10------------8--8---------6-7h9h10p9p7p0|

e|--------------------------------------------------------|
B|--------------------------------------------------------|
G|--------------------------------------------------------|
D|--------------------12-(11)-------12-(11)---------------|
A|-9-9---11---12-12---10-(-9)-10-10-10-(-9)-8-------------|
E|-7-7----9---10-10------------8--8---------6-7h9h10p9p7p0|

Riff: G
e|--------------------------------------------------------|
B|--------------------------------------------------------|
G|--------------------------------------------------------|
D|--------------------------------------------------------|
A|-9-9-9-9---10-10---9-----9------------------------------|
E|-7-7-7-7----8--8---7-7-7-7------------------------------|
   . . .               . .

e|--------------------------------------------------------|
B|--------------------------------------------------------|
G|--------------------------------------------------------|
D|--------------------------------------------------------|
A|-10-10---9-----9---10-10---9-----9---10-10/9------------|
E|--8--8---7-7-7-7----8--8---7-7-7-7----8--8/7------------|
             . .





Comments


Popular Eternal Tears Of Sorrow tabs & chords
As I Die Bass Tabs
The River Flows Frozen Chords
Blood Of Faith Stains My Hands Tabs
River Flows Frozen Tabs
The River Flows Frozen Tabs
The River Flows Frozen Intro Tabs
The River Flows Frozen Ukulele


Song lyrics



↑ Back to top | Tablatures and chords are parodies/interpretations of the original songs. You may use it for private study, scholarship, research or language learning purposes only
© 2014 AZChords.com Contact us | Privacy policy | DMCA | Add/correct tabs | Request tabs | Top 50 tabs