» » »

Blood Of Faith Stains My Hands Tabs (ver.1)

Artists:  A B C D E F G H I J K L M N O P Q R S T U V W X Y Z # 

Blood Of Faith Stains My Hands Tabs (ver.1)

Eternal Tears Of Sorrow
Rating:
0/5 (0 votes)

Hard to play? Try these video lessons and learn fast.
                Eternal Tears Of Sorrow \ Blood of Faith Stains my Hands
--------------------------------------------------------


 - - - - - - - - - - - - - - - - - - - - - - - - - - - - - - - - - - - - - -
[ Jape/EToS: we tune our guitars to E but this is the way to play it from D ]
 - - - - - - - - - - - - - - - - - - - - - - - - - - - - - - - - - - - - - -

Tune To D

Intro
|-----------------------------------------------------------------------------|
|-----------------------------------------------------------------------------|
|-6---------------------------------------------------------------------------|
|-6--------------------------------7--------------9---------------------------|
|-4--------------------------------7--------------9---------------------------|
|----------------------------------5--------------7---------------------------|
|                                                                             |
|-----------------------------------------------------------------------------|
|----9-7-9---------------------------9-7-9------------------------------------|
|-6---------6-8-9-8h9p8-6----6-8---6--------6-8-9-8h9p8-6----6-8---6----------|
|-------------------------9-6---9-------------------------9-6---9-------------|
|-----------------------------------------------------------------------------|
|-----------------------------------------------------------------------------|


|-----------------------------------------------------------------------------|
|-----------------------------------------------------------------------------|
|-6---------------------------------------------------------------------------|
|-6--------------------------------7------------4------------6----------------|
|-4--------------------------------7------------4------------6----------------|
|----------------------------------5------------2------------4----------------|
|                                                                             |
|-----------------------------------------------------------------------------|
|----9-7-9---------------------------9-7-9-----10-9h10p10-7-------------------|
|-6---------6-8-9-8h9p8-6----6-8---6--------6-8------------9-11h9p11-8--------|
|-------------------------9-6---9-------------------------------------9-------|
|-----------------------------------------------------------------------------|
|-----------------------------------------------------------------------------|

Verse (00:28)
|-----------------------------------------------------------------------------|
|-----------------------------------------------------------------------------|
|-6-6-6--------6-6-6-------6-6-666----------9-9-99----------------------------|
|-6-6-6--7-7-7-6-6-6-7-7-7-6-6-666-7-7-7777-9-9-999-9-9999--------------------|
|-4-4-4--7-7-7-4-4-4-7-7-7-4-4-444-7-7-7777-7-7-779-9-9999--------------------|
|--------5-5-5-------5-5-5---------5-5-5555-------7-7-7777--------------------|

Bridge Riff (00:50)
|-----------------------------------------------------------------------------|
|-----------------------------------------------------------------------------|
|---------------4--6------------------------------------------------------------|
|-7-------------4--6----------------------------------------------------------|
|-7-------------2--4----------------------------------------------------------|
|-5-------------------------------------------------------------------------|
|                                                                             |
|-----------------------------------------------------------------------------|
|-----------------------------------------------------------------------------|
|-9--8----------------13--11h13-13h14p14--*11--11-----------------------------|
|------11-9~----9-9/11--11-------------------14--14-13-11*--------------------|
|-----------------------------------------------------------------------------|
|-----------------------------------------------------------------------------|

(* = Not sure about this part, its too fast and you can barely hear it)

|-----------------------------------------------------------------------------|
|-----------------------------------------------------------------------------|
|---------------4-------------------------------------------------------------|
|-7-------------4-4------------6-6666-----------------------------------------|
|-7-------------2-4------------6-6666-----------------------------------------|
|-5---------------2------------4-4444-----------------------------------------|
|                                                                             |
|-----------------------------------------------------------------------------|
|-----------------------------------------------------------------------------|
|-9--8---------------------6-8-9-8h9p8-6-8------------------------------------|
|------11-9~----7-9--11-11----------------------------------------------------|
|-------------------9--9------------------------------------------------------|
|-----------------------------------------------------------------------------|

Verse Riff Agian (1:12)
|-----------------------------------------------------------------------------|
|-----------------------------------------------------------------------------|
|-6-6-6--------6-6-6-------6-6-666----------9-9-99----------------------------|
|-6-6-6--7-7-7-6-6-6-7-7-7-6-6-666-7-7-7777-9-9-999-9-9999--------------------|
|-4-4-4--7-7-7-4-4-4-7-7-7-4-4-444-7-7-7777-7-7-779-9-9999--------------------|
|--------5-5-5-------5-5-5---------5-5-5555-------7-7-7777--------------------|

Bridge Riff Again (1:34)

Riff C (1:56)
|-----------------------------------------------------------------------------|
|-----------------------------------------------------------------------------|
|-666-------999--------666----------------------------------------------------|
|-666-7-77--999-9-99---666-7-77-444-6-66--------------------------------------|
|-444-7-77--777-9-99---444-7-77-444-6-66--------------------------------------|
|-----5-55------7-77-------5-55-222-4-44--------------------------------------|

Solo Under Riff C (2:18)

|-----------------------------------------------------------------------------|
|-----------------------------------------------------------------------------|
|-6h8h9-8h9h11-9h11h13-11h13h14-13h14h16-16-14-13-----------------------------|
|------------------------------------------------16-14-13---------------------|
|--------------------------------------------------------14~------------------|
|-----------------------------------------------------------------------------|

|-----------------------------------------------------------------------------|
|----------------14-12-10--10-------------------------------------------------|
|---------9h11h13--------13--11-13---------9h11jh13--13b~---------------------|
|-9h11jh13-------------------------9h11jh13-----------------------------------|
|-------------------------------------------------------...Synth Solo Comes In|
|-----------------------------------------------------------------------------|

Solo Part 2 (2:29) (FAST!!!)

|-19fb~----------------------16-14-12-----------------------------------------|
|-----------------------12-14--------16-14-12---------------------------------|
|---------------11-13-14---------------------14-13-11-11fb~-------------------|
|-------11-13-14--------------------------------------------------------------|
|------------------------------------------------------...Synth Comes In Again|
|-----------------------------------------------------------------------------|

Intro Riff

Verse Riff

Bridge Riffs

Riff C

The End
            
Hard to play? Try these video lessons and learn fast. | Correct




comments powered by Disqus
↑ Back to top | Tablatures and chords are parodies/interpretations of the original songs. You may use it for private study, scholarship, research or language learning purposes only