» » »

As I Die Bass tabs (ver.1)

Artists:  A B C D E F G H I J K L M N O P Q R S T U V W X Y Z # 

As I Die Bass tabs (ver.1)

Eternal Tears Of Sorrow
Rating:
0/5 (0 votes)

Hard to play? Try these video lessons and learn fast.
                Intro\Verse1
|-----------------|-----------------|-----------------|-----------------|
|-----------------|-----------------|-----------------|-----------------|
|-----------------|-----------------|-----------------|-----------------| X2
|-1-1-1-1-1-1-1-1-|-4-4-4-4-4-4-4-4-|-3-3-3-3-3-3-3-3-|-6-6-6-6-6-6-6-6-|

Chorus
|-------------|-----------|-------------|-----------|-------------|
|-------------|-----------|-------------|-----------|-------------|
|-------------|-----------|-4-4---------|-----6\9-9-|-------------|
|-6-6-6\4-4-1-|-1-1-6\4-4-|-----4\6-6\4-|-1-1-------|-6-6-6\4-4-1-|


|-----------|-------------|-----------|
|-----------|-------------|-----------|
|-----------|-4-4---------|-----6\9-9-|
|-1-1-6\4-4-|-----4\6-6\4-|-1-1-------|


|-----------------|-----------------|
|---4-3---3-1---1-|-1---------------|
|-1-----1-----1---|-----1-------1---|
|-----------------|---1---4-3-4---4-|

Verse2
|-----------------|-----------------|-----------------|-----------------|
|-----------------|-----------------|-----------------|-----------------|
|-----------------|-----------------|-----------------|-----------------| X2
|-1-1-1-1-1-1-1-1-|-1-1-1-1-4-4-4-4-|-8-8-8-8-8-8-8-8-|-6-6-6-6-6-6-6-6-|

Chorus
|-------------|-----------|-------------|-----------|-------------|
|-------------|-----------|-------------|-----------|-------------|
|-------------|-----------|-4-4---------|-----6\9-9-|-------------|
|-6-6-6\4-4-1-|-1-1-6\4-4-|-----4\6-6\4-|-1-1-------|-6-6-6\4-4-1-|


|-----------|-------------|-----------|
|-----------|-------------|-----------|
|-----------|-4-4---------|-----6\9-9-|
|-1-1-6\4-4-|-----4\6-6\4-|-1-1-------|

Intro\Verse1
|-----------------|-----------------|-----------------|-----------------|
|-----------------|-----------------|-----------------|-----------------|
|-----------------|-----------------|-----------------|-----------------| X2
|-1-1-1-1-1-1-1-1-|-4-4-4-4-4-4-4-4-|-3-3-3-3-3-3-3-3-|-6-6-6-6-6-6-6-6-|


Chorus
|-------------|-----------|-------------|-----------|-------------|
|-------------|-----------|-------------|-----------|-------------|
|-------------|-----------|-4-4---------|-----6\9-9-|-------------|
|-6-6-6\4-4-1-|-1-1-6\4-4-|-----4\6-6\4-|-1-1-------|-6-6-6\4-4-1-|


|-----------|-------------|-----------|
|-----------|-------------|-----------|
|-----------|-4-4---------|-----6\9-9-|
|-1-1-6\4-4-|-----4\6-6\4-|-1-1-------|



|-----------------|-----------------|
|---4-3---3-1---1-|-1---------------|
|-1-----1-----1---|-----1-------1---|
|-----------------|---1---4-3-4---4-|


Verse2
|-----------------|-----------------|-----------------|-----------------|
|-----------------|-----------------|-----------------|-----------------|
|-----------------|-----------------|-----------------|-----------------| X2
|-1-1-1-1-1-1-1-1-|-1-1-1-1-4-4-4-4-|-8-8-8-8-8-8-8-8-|-6-6-6-6-6-6-6-6-|


Chorus
|-------------|-----------|-------------|-----------|-------------|
|-------------|-----------|-------------|-----------|-------------|
|-------------|-----------|-4-4---------|-----6\9-9-|-------------|
|-6-6-6\4-4-1-|-1-1-6\4-4-|-----4\6-6\4-|-1-1-------|-6-6-6\4-4-1-|


|-----------|-------------|-----------|
|-----------|-------------|-----------|
|-----------|-4-4---------|-----6\9-9-|
|-1-1-6\4-4-|-----4\6-6\4-|-1-1-------|

Solo
|-----|---------|-----|---------|---------|---------|
|-----|-5-3-----|-----|-5-3-----|---------|---------|
|-3-3-|-----3-1-|-3-3-|-----3-1-|-1-4-3-6-|-1-4-3-6-|
|-----|---------|-----|---------|---------|---------|


|-----|---------|-----|---------|---------|---------|---|
|-----|-5-3-----|-----|-5-3-----|---------|---------|-3-|
|-3-3-|-----3-1-|-3-3-|-----3-1-|-1-4-3-6-|-1-4-3-6-|---|
|-----|---------|-----|---------|---------|---------|---|

Chorus
|-------------|-----------|-------------|-----------|-------------|
|-------------|-----------|-------------|-----------|-------------|
|-------------|-----------|-4-4---------|-----6\9-9-|-------------|
|-6-6-6\4-4-1-|-1-1-6\4-4-|-----4\6-6\4-|-1-1-------|-6-6-6\4-4-1-|


|-----------|-------------|-----------|
|-----------|-------------|-----------|
|-----------|-4-4---------|-----6\9-9-|
|-1-1-6\4-4-|-----4\6-6\4-|-1-1-------|


|-------------|-----------|-------------|-----------|-------------|
|-------------|-----------|-------------|-----------|-------------|
|-------------|-----------|-4-4---------|-----6\9-9-|-------------|
|-6-6-6\4-4-1-|-1-1-6\4-4-|-----4\6-6\4-|-1-1-------|-6-6-6\4-4-1-|


|-----------|-------------|-----------|---|
|-----------|-------------|-----------|-3-|
|-----------|-4-4---------|-----6\9-9-|---|
|-1-1-6\4-4-|-----4\6-6\4-|-1-1-------|---|
            
Hard to play? Try these video lessons and learn fast. | Correct




comments powered by Disqus
↑ Back to top | Tablatures and chords are parodies/interpretations of the original songs. You may use it for private study, scholarship, research or language learning purposes only