» » »

American Boy Tabs (ver.1)

Artists:  A B C D E F G H I J K L M N O P Q R S T U V W X Y Z # 

American Boy Tabs (ver.1)

Estelle
Rating:
0/5 (0 votes)

Hard to play? Try these video lessons and learn fast.
                  
American Boy by Estelle ft Kanye West

Pretty Easy Song guitar plays this throughout verse and chorus.
Bass Lines also pretty simple. Just listen to the song for the rhythm.

Guitar:
   
   |Emaj7   |      |      |       |Cmaj7  |      |       |
e||--7~-----------------------|------------------------------|
B||--9~-----------------------|---8~-------------------------|
G||--8~-----------------------|---9~-------------------------|
D||--9~-----------------------|---9~-------------------------|
A||--7~-----------------------|---10~------------------------|
E||---------------------------|---8~-------------------------|

     |Am7th  |      |      |       |      |      |D7sus2 |
e||---------------------------|------------------5~----------|
B||--5~-----------------------|------------------5~----------|
G||--5~-----------------------|------------------5~----------|
D||--5~-----------------------|------------------7~----------|
A||--7~-----------------------|------------------5~----------|
E||--5~-----------------------|------------------------------|


Bass Line:

     |      |      |      |       |      |      |      |
G||-----9------9----------9----|-----------------------------|
D||----------------------------|-----10-----10---------10----|
A||--7------7------7~----------|-----------------------------|
E||----------------------------|--8------8------8-------8----|

     |      |      |      |       |      |      |      |
G||----------------------------|-----------------------7-----|
D||-----7------7----------7----|-----7-----------------------|
A||----------------------------|----------------5------------|
E||--5------5------5-----------|--5------5-------------------|
            
Hard to play? Try these video lessons and learn fast. | Correct




comments powered by Disqus
↑ Back to top | Tablatures and chords are parodies/interpretations of the original songs. You may use it for private study, scholarship, research or language learning purposes only