>
 >
Malaguena

Malaguena Guitar Tabs

Esteban - Malaguena chords, tabs, tablatures, lyrics

Guitar lessons | Add/correct | Request | Top 50 tabs Artists:  A B C D E F G H I J K L M N O P Q R S T U V W X Y Z 0-9

Malaguena Guitar Tabs – Esteban

CD, Sheet music, Poster

Do you like Malaguena? Share with your friends now
Tabs
Key:

Fretted note:  |------5-----|
Hammer-on:     |-----5h6----|
Pull-off:      |-----6p5----|

This Malaguena is one of my favorite pieces to play. 
Time: 3/4

                                                                  
E||-----0-----0-----0--|-----0-----0-----0--|-----0-----0-----0--|
B||-----0-----0-----0--|-----0-----0-----0--|-----1-----1-----1--|
G||-----1-----1-----1--|-----1-----1-----1--|-----2-----2-----2--|
D||--------------------|--------------------|--------------------|
A||--------------2-----|--------------2-----|--0-----3-----2-----|
E||--0-----4-----------|--0-----4-----------|--------------------|


                                                               
-----0-----0-----0--|-----0-----0-----0--|-----0-----0-----0--|
-----1-----0-----0--|-----0-----0-----0--|-----0-----0-----0--|
-----2-----2-----2--|-----1-----1-----1--|-----1-----1-----1--|
--------------------|--------------------|--------------------|
--0-----------------|--------------2-----|--------------2-----|
--------3-----1-----|--0-----4-----------|--0-----4-----------|


                                                              
-----0-----0-----0--|-----0-----0-----0--||--------0----0----|
-----1-----1-----1--|-----1-----1-----1--||--------0----0----|
-----2-----2-----2--|-----2-----2-----2--||*-------1----1----|
--------------------|--0-----2-----3-----||*-----------------|
--0-----3-----2-----|--------------------||------------------|
--------------------|--------------------||---0--------------|


                                                                 
-----0-----0-----0--|-----0-----0-----0--|---------------------||
--------3-----3-----|--------1-----1-----|---------------------||
--------4-----4-----|--------2-----2-----|--------------------*||
--------------------|--------------------|--------0h2---5p3---*||
--------------------|--0-----------------|--2h3----------------||
--0-----------------|--------------------|---------------------||


                                                                             
--------0----0----|-------0--4/-7----|----------5--8----|-------7-----5----|
--------0----0----|------------------|-------5----------|----------8-----6-|
*-------1----1----|-------7----------|-------5----------|-------7-----5----|
*--2--------------|------------------|------------------|------------------|
------------------|------------------|------------------|------------------|
---0--------------|--0---------------|--0---------------|--0---------------|


                                                               
-----0-----------0--|-----------------0--|-----------------0--|
--------------0-----|-----6--------6-----|-----6--------6-----|
-----------7--------|-----------7--------|-----------5--------|
--------6-----------|--------6-----------|--------7-----------|
--------------------|--------------------|--------------------|
--0-----------------|--0-----------------|--0-----------------|


                                                              
---------------------||-------0----0----|--------------------|
-----3--1-----0------||-------0----0----|--------------------|
--4--------2-----2--*||-------1----1----|--------------------|
--0-----2-----3-----*||-----------------|--------------------|
---------------------||-----------------|-----------------2--|
---------------------||--0--------------|--0h-1h-2h-3h-4-----|


                                                                                
--------------------|---------------------|-------0----0---|---------------|
--------------------|---------------------|-------0----0---|---------------|
--------------------|--2-----0h2p0--------|-------1----1---|---------------|
--------------2h-3--|-----3---------3--2--|----------------|-------0h2--3--|
--0h-2h-3h-5--------|---------------------|----------------|---------------|
--------------------|---------------------|--0-------------|---------------|


                                                                                
---------------------|-------------------|-------0----0---|----------------|
---------------------|-------------------|-------1----1---|--------------5-|
--5--4h5p4--2--------|-------------------|-------0----0---|-----------0----|
---------------5--3--|--0h2---3p0--------|----------------|--------2-------|
---------------------|--------------3----|--3-------------|---3h5----------|
---------------------|-------------------|----------------|----------------|


                                                              
-----------------------|-------------------|-------1----1----|
--3h5p3-1--0--1--3--1--|-------------------|-------1----1----|
-----------------------|--5p3---2--0-------|-------2----2----|
-----------------------|--------------3----|-----------------|
-----------------------|-------------------|-----------------|
-----------------------|-------------------|--1--------------|


                                                               
-------------------|----------------------|-------------------|
-------------------|----------------------|-------------------|
----------------0--|--5----4h5p4-2--------|-------------------|
-------0h2---3-----|----------------5--3--|--0h2---3h0--------|
-------------------|----------------------|--------------3----|
--3----------------|----------------------|-------------------|


                                                                               
-------0----0----|-----------0-------|--------------------|----------------|
-------1----1----|--------1-----8----|-8p6-5-5p3----0h1---|--3p1---0-------|
-------0----0----|-----0-------------|-----------5--------|-----------2--0-|
-----------------|--2----------------|--------------------|----------------|
--3--------------|-------------------|--------------------|----------------|
-----------------|-------------------|--------------------|----------------|


                                                                                
-------1----1----|-------------------|--------------------|---------------|
-------0----0----|-------------------|--1--0h1p0----------|---------------|
-------0----0----|----------------0--|-----------2--0-----|---------------|
-----------------|-------0h2---3-----|-----------------3--|--0--2--3--0---|
-----------------|-------------------|--------------------|--------------3|
--3--------------|--3----------------|--------------------|---------------|


                                                                                
-------0----0----|--------------------|---------------------|-------1----1|
-------1----1----|--------------------|---------------------|-------1----1|
-------0----0----|--------------0h3---|--2--5--3h5p3-0------|-------2----2|
-----------------|--------2h3---------|-----------------3---|-------------|
--3--------------|--3h5---------------|---------------------|-------------|
-----------------|--------------------|---------------------|--1----------|


                                                                       
----------------------|-------0----0----|--------0--------0--------0--|
----------------------|-------0----0----|-----3--------1--------0-----|
-----2--0h2p0---------|-------1----1----|--4--------2--------1--------|
--3-----------3--2----|-----------------|-----------------------------|
----------------------|-----------------|-----------------------------|
----------------------|--0--------------|-----------------------------|


                                                                              
--------0--------0--------0--|--------0--------0--------0--|-------0----0--|
-----1--------5--------3-----|-----1--------0--------------|-------0----0--|
-----------5--------4--------|--2--------0-----------2-----|-------1----1--|
-----------------------------|--------------------3--------|---------------|
--0--------------------------|-----------------------------|---------------|
-----------------------------|-----------------------------|--0------------|


                                                            
--------4--7--------5--------|--3--------1--------5--------|
--4h5---------2h3------------|-----------------------------|
-----------------------4h5---|-----1h2------4h5------3h4---|
-----------------------------|-----------------------------|
-----------------------------|-----------------------------|
-----------------------------|-----------------------------|


                                                                    
--3--------1----------------|-------0----0----|--------------------|
----------------------------|-------0----0----|--------------------|
-----1h2------------2p0-----|-------1----1----|-----------------0--|
--------------2/-3------3p2-|-----------------|--------------2-----|
----------------------------|-----------------|-----0--2h5---3-----|
----------------------------|--0--------------|--3-----------------|


                                                                 
--------------------|-----------0--------|--------0------8------|
-----0--------0-----|--------0--------0--|-----1-----10-----10--|
--------2--------2--|-----1--------1-----|--2-------------------|
--3--------3--------|--2-----------------|----------------------|
--5-----------------|--------------------|--0-------------------|
--------------------|--0-----------------|----------------------|


                                                               
--7-----5-----3-----|--1-----0-----------|--------------------|
-----8-----6-----5--|-----3-----1--3-----|--1-----0-----------|
--------------------|-----------------4--|-----2-----0--2-----|
--9-----7-----5-----|--3-----2-----0-----|-----------------3--|
--------------------|--------------------|--3-----------------|
--------------------|--------------------|--------3-----1-----|


                                                                             
-------0----0----|--1----0-----------|--------------------|----------------|
-------0----0----|--0-------3--------|-----1-----3--1p0---|-------0----1---|
-------1----1----|--0----------5--4--|--2-----4-----------|--2----0----0---|
-----------------|-------------------|--3-----5-----2-----|--3----0----2---|
-----------------|-------------------|--------------------|----------------|
--0--------------|-------------------|--------------------|----------------|


                                                                             
-------0----0----|--6----5p3---1--0--|-----1-----3--1p0---|-------0----1---|
-------1----1----|--5----------------|--3-----5-----------|--3----1----1---|
-------0----0----|--0----------------|--3-----5-----2-----|--3----0----2---|
-----------------|-------------------|--------------------|----------------|
--3--------------|--3----------------|--------------------|----------------|
-----------------|-------------------|--------------------|----------------|


                                                                             
-------1----1----|--1----0-----------|--------------------|----------------|
-------1----1----|--0-------3--------|-----1-----3--1p0---|-------0----1---|
-------2----2----|--0----------5p4---|--2-----4-----------|--2----0----0---|
-----------------|-------------------|--3-----5-----2-----|--3----0----2---|
-----------------|-------------------|--------------------|----------------|
--1--------------|-------------------|--------------------|----------------|


                                                                             
-------0----0----|--8----7p5---3p2---|-----3-----5--3p2---|-------2----3--|
-------1----1----|--6----------------|--5-----7-----------|--5----3----3--|
-------0----0----|-------------------|--5-----7-----4-----|--5----2----4--|
-----------------|--0----------------|--------------------|---------------|
--3--------------|-------------------|--------------------|---------------|
-----------------|-------------------|--------------------|---------------|


                                                                             
-------3----3----|--1----0-----------|--------------------|---------------|
-------3----3----|--0-------3--------|-----1-----3--1p0---|-------0----1--|
-------4----4----|--0----------5p4---|--2-----4-----------|--2----0----0--|
-----------------|-------------------|--3-----5-----2-----|--3----0----2--|
-----------------|-------------------|--------------------|---------------|
--3--------------|-------------------|--------------------|---------------|


                                                                               
-------0----0----|--6----5p3---1--3--|--5/-6--5--4--5----|-----------5----|
-------1----1----|--5----------------|-------------------|--------4----4--|
-------0----0----|--0----------------|--5----------------|-----5---------5|
-----------------|-------------------|--3----------------|--3-------------|
--3--------------|--3----------------|-------------------|----------------|
-----------------|-------------------|-------------------|----------------|


                                                                          
-------4----4----|--10--12--13--13p12p10-----10--|----------10------0----|
-------5----5----|-----------------------13------|--12--13------12-------|
-------4----4----|-------------------------------|-----------------------|
-----------------|-------------------------------|-----------------------|
-----------------|-------------------------------|-----------------------|
--0--------------|--0----------------------------|--0--------------------|


                                                                           
--8--10--12--12p10p8-7--8--|--5--7--8--5--0----|--7--8--10--10p8p7-----7--|
---------------------------|-------------------|-------------------10-----|
---------------------------|-------------------|--------------------------|
---------------------------|-------------------|--------------------------|
---------------------------|-------------------|--------------------------|
--0------------------------|--0----------------|--0-----------------------|


                                                                  
---------7-----0----|--5--7--8--8p7p5----5--|-----3--5-----------|
--9--10-----9-------|-----------------8-----|--6--------6--3--5--|
--------------------|-----------------------|--------------------|
--------------------|-----------------------|--------------------|
--------------------|-----------------------|--------------------|
--0-----------------|--0--------------------|--0-----------------|


                                                                  
--------------------|--------------------|-----------------------|
--6--3--0--1--3--0--|--------------------|-----------------------|
--------------------|--0--2--4--0-----0--|--2h4p2-0--------------|
--------------------|--------------3-----|-----------3--2--0--3--|
--------------------|--------------------|-----------------------|
--0-----------------|--------------------|-----------------------|


                  
-------0--------||
-------0--------||
-------1--------||
----------------||
----------------||
--0-------------||





Comments


Popular Esteban tabs & chords
Canon Tabs
Country Pie Tabs
Dreamin Tabs
Fuego Malaguena Tabs
Good King Wenceslaus Tabs
House Of The Rising Sun Tremolo Style Tabs
Malaguena Rumba Tabs
Pat A Pan Tabs
Sedona Sunrise Intro Tabs
Wildwood Flower Tabs


Song lyrics



↑ Back to top | Tablatures and chords are parodies/interpretations of the original songs. You may use it for private study, scholarship, research or language learning purposes only
© 2014 AZChords.com Contact us | Privacy policy | DMCA | Add/correct tabs | Request tabs | Top 50 tabs