>
 >
Sera De Dios

Sera De Dios Guitar Tabs

Erreway - Sera De Dios chords, tabs, tablatures, lyrics

Guitar lessons | Add/correct | Request | Top 50 tabs Artists:  A B C D E F G H I J K L M N O P Q R S T U V W X Y Z 0-9

Sera De Dios Guitar Tabs – Erreway

CD, Sheet music, Poster

Do you like Sera De Dios? Share with your friends now
ChordsChords v2TabsUkulele
Erreway
"Sera de dios"


1)-------0--5^7h---5------0-0^2h--0-- *
2)-2-2-3-------------2-3------------- *
3)-2--------------------------------- *
4)----------------------------------- *
5)-0---0----0------0------0---------- *
6)----------------------------------- *
                                      ***INTRO
                            MIM9      *
1)-----------------------------0----- *
2)-2(slide)^0-----------------0------ *
3)------------2-2(slide)^4---1------- *
4)--------------------------4-------- *
5)----------------------------------- *
6)--------------0-------------------- *
                                   ****

    LAM     MIM/LA           REM7+              REM/MI
1)-----------------------------------------------2-----2-|
2)--2--2-----0--------0-------2--------2---------3-----3-|
3)--2--2-----1--------1-------2--------2---------2-----2-|
4)--2--2-----2--------2-------4--------4--------2-----2--|
5)-0--0-----0--------0-------5--------5------------------|
6)-------------------------------------------------------|
   Dije, no voy a volver, no voy a sentir no voy a pensar.


    LAM       MIM/LA          REM7+              REM/MI
1)-------------------------------------------------2--2-|
2)--2-----2----0-------0-------2------2------------3--3-|
3)--2-----2----1-------1-------2------2------------2--2-|
4)--2-----2----2-------2-------4------4-----------2--2--|
5)-0-----0----0-------0-------5------5------------------|
6)------------------------------------------------------|
    Y te vi y todo cambio, no pude negarme a tu mirada.


ESTRIBILLO 1:
    REM7+        LaM9/do#  sim/sol#      Do#M7/9-   fa#m7
1)--2---2---------5--5-------------------------------------|
2)--2---2---------5--5------3-------------3----------2---2-|
3)--2---2---------4--4------4-------------4----------2---2-|
4)-0---0--------------------4-------------3----------2-2---|
5)---------------4--4--------------------4-----------------|
6)-------------------------4------------------------2------|
   Uh...Sera de  Dios que  no te pueda olvidar      mas


    REM7+        LaM9/do#  sim/sol#      Do#M7/9-   fa#m7
1)--2---2---------5--5-------------------------------------|
2)--2---2---------5--5------3-------------3----------2-----|
3)--2---2---------4--4------4-------------4----------2-----|
4)-0---0--------------------4-------------3----------2-----|
5)---------------4--4--------------------4-----------------|
6)-------------------------4------------------------2------|
   Uh...sera de  Dios que  sea tuya hasta el      final


           SIM7/9   sim7            MIM9
1)--------------------------------------0-|
2)-------------2-----3-------3---------0--|
3)------------2------2-------2--------1---|
4)-----------1-------4-------4-------4----|
5)----------2-------2-------2-------------|
6)----------------------------------------|
Sera que al fin, mi corazon se desperto


Estribillo 2:
        LaM           fa#m7           sim7           Re/mi
1)---------------------------------------------------2--2--|
2)--------2-------2----2--2-----------3-------3------3--3--|
3)--------2-------2----2--2-----------2-------2------2--2--|
4)--------2-------2----2--2-----------4-------4-----2--2---|
5)-------0-------0-------------------2-------2-------------|
6)--------------------2--2---------------------------------|
 sera de Dios, sera mejor, ya no te alejes no digas adios


        LaM7+         fa#m7          sim7          Re/mi
1)-----------------------------------------------------2----|
2)--------2-------2----2--2-----------3-------3-------3-----|
3)--------1-------1----2--2-----------2-------2------2------|
4)--------2-------2----2--2-----------4-------4-----2-------|
5)-------0-------0-------------------2-------2--------------|
6)--------------------2--2----------------------------------|
 sera de Dios, sera mejor, ya no te alejes no digas adios.


2 parte:

Mirame asi,que en ese brillo, pueda ver toda la fuerza de tu amor

de tu amor, que entre tus besos llegue ya la primavera

ESTRIBILLO 1 y 2 : UH...Sera de Dios...


   SolM7+       mim7      REM7+
1)---------------------------------------|
2)--3--3--------3-----3----2---2---2---2-|
3)--4--4--------0-----0----2---2---2---2-|
4)--4--4--------0-----0----4---4---4---4-|
5)------------------------5---5---5---5--|
6)-3--3--------0-----0-------------------|
      No se si pueda perdonar


  SolM7+       mim7      SIM7+
1)---------------------------------------|
2)--3--3--------3-----3----4---4---4---4-|
3)--4--4--------0-----0----3---3---3---3-|
4)--4--4--------0-----0----4---4---4---4-|
5)------------------------2---2---2---2--|
6)-3--3--------0-----0-------------------|
      no se si deba  regresar


   SolM7+     mim7          REM7+    SIM5+
1)------------------------------------7----7-|
2)--3--3-------3------3------2---2----8----8-|
3)--4--4-------0------0------2---2----8---8--|
4)--4--4-------0------0------4---4---9---9---|
5)--------------------------5---5------------|
6)-3--3-------0------0-----------------------|
      para perderte una vez mas


   mim7/9                           mi/fa#  Fa#M/la#
1)--2--2----------2-------2-----2----4--4----2--2-|
2)--3--3----------3-------3-----3----5--5----2--2-|
3)--0--0----------0-------0-----0----4--4----3--3-|
4)----------------------------------4--4----------|
5)------------------------------------------1--1--|
6)-0--0----------0-------0-----0------------------|
      sera que al fin me ames de verdad

         SIM7+        sol#m7         do#m7          MIM /FA#
1)----------------------------------------------------4--|
2)--------4-------4----4---4----------5--------5------5--|
3)--------3-------3----4---4----------4--------4------4--|
4)--------4-------4----4---4----------6--------6-----4---|
5)-------2-------2-------------------4--------4----------|
6)--------------------4---4------------------------------|
 sera de Dios, sera mejor, ya no te alejes no digas adios.

               SIM7+
1)-----------------2-|
2)----------------4--|
3)---------------3---|
4)--------------4----|
5)-------------2-----|
6)-------------------|
FINAL: Sera de Dios





Comments


Popular Erreway tabs & chords
Amor De Engano Chords
Dije Adios Chords
Inmortal 1 Chords
Memoria Chords
Nada Que Hablar Chords
Sera Porque Te Quiero Chords
Memoria Ukulele
Pretty Boy Ukulele
Sera De Dios Ukulele
Sera Porque Te Quiero Ukulele


Song lyrics



↑ Back to top | Tablatures and chords are parodies/interpretations of the original songs. You may use it for private study, scholarship, research or language learning purposes only
© 2014 AZChords.com Contact us | Privacy policy | DMCA | Add/correct tabs | Request tabs | Top 50 tabs