>
 >
Wings Of Fire

Wings Of Fire Guitar Tabs

Eric Mantel - Wings Of Fire chords, tabs, tablatures, lyrics

Guitar lessons | Add/correct | Request | Top 50 tabs Artists:  A B C D E F G H I J K L M N O P Q R S T U V W X Y Z 0-9

Wings Of Fire Guitar Tabs – Eric Mantel

CD, Sheet music, Poster

Do you like Wings Of Fire? Share with your friends now
Tabs
Wings of Fire by Eric Mantel (From the 2006 Album The Unstruck Melody)


Main guitar parts

     W                   H        Q     Q
E||-------------------|-----------------------|
B||-------------------|-----------------------|
G||-------------------|-----------------------|
D||-------------------|-----------------------|
A||-------------------|-----------------------|
E||-------------------|----------------14\----|


    F#m7
    E    E  S S S S S S S S S  S E     E  S S S S S S S S S S S E.   4x
|-----------------------------------|--------------------------------||
|-----------2-2---2---------4p-2-4--|---------2-2---2----------------||
|*----------2-2---2---------4p-2-4--|---------2-2---2---------------*||
|*----------2-2---2---------4p-2-4--|---------2-2---2---------------*||
|-----------------------------------|-------------------2---3---4----||
|---2----2------------x---2---------|--2--x-x------------------------||


    E.  S S S S   S S  S S S  S  S S  S     Q    S S S S S S  S  S  S  E.
-----------------------------------------|--------------------12-12-12-12\--|
------------------------------12-12---11-|---L----x-9-x-x-x-x-12-12-12-12\--|
--9g11---9-x-x-------9-11---9------------|--------x-9-x-x-x-x--9--9--9--9\--|
-----------x-x-9h-11---------------------|--------x-9-x-x-x-x---------------|
-----------------------------------------|----------------------------------|
-----------------------------------------|----------------------------------|


  E  E   S S S  S  E  E   S  S  S S    E  S S S S S S S S S S S E.
------------------------------------|-------------------------------|
------------------------------------|-------------------------------|
----------------------9-------------|-----x-x-x-9-x-x-x-x-9-9-9-9---|
-----------9---11--L-----11p-9------|-----x-x-x-9-x-x-x-x-9-9-9-9---|
-----9--12---------------------12-9-|--L----------------------------|
------------------------------------|-------------------------------|


  E.  S S S S   S S  S S S  S  S S  S     Q    S  E.     S  S  S  S S  E.
-----------------------------------------|----------12br----Lp-9-------9----|
------------------------------12-12---11-|---L-------------------12-12---12b|
--9g11---9-x-x-------9-11---9------------|----------------------------------|
-----------x-x-9h-11---------------------|----------------------------------|
-----------------------------------------|----------------------------------|
-----------------------------------------|----------------------------------|


   E    E   S S S  S  E  E   S  S  S S    E  S S S S S S S S S S S  E.
---------------------------------------|--------------------------------|
---L\----------------------------------|---------------------------11---|
-------------------------9-------------|-----x-x-x-9-x-x-x-x-9-9-9-11---|
--------------9---11--L-----11p-9------|-----x-x-x-9-x-x-x-x-9-9-9-11---|
-------/9--12---------------------12-9-|--L-----------------------------|
---------------------------------------|--------------------------------|


  D             E                 F#m7
  E    E  E  E  E     E  E  E     E    E  S S S S S S S S S  S E
-------------------------------|----------------------------------|
----------7--------------9-----|----------2-2---2---------4p-2-4--|
----------7--------------9-----|----------2-2---2---------4p-2-4--|
----------7--------------9-----|----------2-2---2---------4p-2-4--|
--5--7g9-----9--7--9g11--------|----------------------------------|
-------------------------------|--2----2------------x---2---------|


  D             E                 F#m7
  E    E  E  E  E     E  E  E     E    S S S S S S E  E  S S S S
-------------------------------|---------------------------------|
----------7--------------9-----|-------2-x-x-2-x-x-2-----x-x-x-x-|
----------7--------------9-----|-------2-x-x-2-x-x-2-----x-x-x-x-|
----------7--------------9-----|-------2-x-x-2-x-x-2-----x-x-x-x-|
--5--7g9-----9--7--9g11--------|---------------------------------|
-------------------------------|--2------------------------------|


    E.  S S S S   S S  S S S  S  S S  S     Q    S S S S S S  S  S  S  E.
-----------------------------------------|--------------------12-12-12-12\--|
------------------------------12-12---11-|---L----x-9-x-x-x-x-12-12-12-12\--|
--9g11---9-x-x-------9-11---9------------|--------x-9-x-x-x-x--9--9--9--9\--|
-----------x-x-9h-11---------------------|--------x-9-x-x-x-x---------------|
-----------------------------------------|----------------------------------|
-----------------------------------------|----------------------------------|


  E  E   S S S  S  E  E   S  S  S S    E  S S S S S S S S S S S E.
------------------------------------|-------------------------------|
------------------------------------|-------------------------------|
----------------------9-------------|-----x-x-x-9-x-x-x-x-9-9-9-9---|
-----------9---11--L-----11p-9------|-----x-x-x-9-x-x-x-x-9-9-9-9---|
-----9--12---------------------12-9-|--L----------------------------|
------------------------------------|-------------------------------|


  E.  S S S S   S S  S S S  S  S S  S     Q    S  E.     S  S  S  S S  E.
-----------------------------------------|----------12br----Lp-9-------9----|
------------------------------12-12---11-|---L-------------------12-12---12b|
--9g11---9-x-x-------9-11---9------------|----------------------------------|
-----------x-x-9h-11---------------------|----------------------------------|
-----------------------------------------|----------------------------------|
-----------------------------------------|----------------------------------|


   E    E   S S S  S  E  E   S  S  S S    E  S S S S S S S S S S S  E.
---------------------------------------|--------------------------------|
---L\----------------------------------|---------------------------11---|
-------------------------9-------------|-----x-x-x-9-x-x-x-x-9-9-9-11---|
--------------9---11--L-----11p-9------|-----x-x-x-9-x-x-x-x-9-9-9-11---|
-------/9--12---------------------12-9-|--L-----------------------------|
---------------------------------------|--------------------------------|


  D             E                 F#m7
  E    E  E  E  E     E  E  E     E    E  S S S S S S S S S  S E
-------------------------------|----------------------------------|
----------7--------------9-----|----------2-2---2---------4p-2-4--|
----------7--------------9-----|----------2-2---2---------4p-2-4--|
----------7--------------9-----|----------2-2---2---------4p-2-4--|
--5--7g9-----9--7--9g11--------|----------------------------------|
-------------------------------|--2----2------------x---2---------|


  D             E                 F#m7
  E    E  E  E  E     E  E  E     E    E  S S S S S S S S S  S E
-------------------------------|----------------------------------|
----------7--------------9-----|----------2-2---2---------4p-2-4--|
----------7--------------9-----|----------2-2---2---------4p-2-4--|
----------7--------------9-----|----------2-2---2---------4p-2-4--|
--5--7g9-----9--7--9g11--------|----------------------------------|
-------------------------------|--2----2------------x---2---------|


  D             E                  D             E
  E    E  E  E  E     E  E   E     E    E  E  E  E     E  E  E
--------------------------------|-------------------------------|
----------7--------------9------|----------7--------------9-----|
----------7--------------9------|----------7--------------9-----|
----------7--------------9------|----------7--------------9-----|
--5--7g9-----9--7--9g11-----11--|--5--7g9-----9--7--9g11--------|
--------------------------------|-------------------------------|


  Bm7           C#m7                Bm7
  E   E  E  S S S    S E  E  S S    E   E  E  S S
---------------------------------|----------------|
---------7--x-x-----------9--x-x-|---------7--x-x-|
---------7--x-x-----------9--x-x-|---------7--x-x-|
---------7--x-x-----------9--x-x-|---------7--x-x-|
---------------------------------|----------------|
--7---7---------9----x-9---------|--7---7---------|


  S E  S S E  S S E  S S E  S    S S S S S S S S S S S S S S E
------------------------------|---------------------------------|
----9--9---9--9---9--9---9--9-|----9---9---9---9---9---9-9-9----|
----9--9---9--9---9--9---9--9-|----9---9---9---9---9---9-9-9----|
----9--9---9--9---9--9---9--9-|----9---9---9---9---9---9-9-9----|
------------------------------|---------------------------------|
------------------------------|---------------------------------|


  (F#m)
  W                   W
-------------------|-------------------|
-------------------|-------------------|
-------------------|-------------------|
--4----------------|--L----------------|
-------------------|-------------------|
--2----------------|--L----------------|


   (F#m)
                   |------5-----|
   S     S  S   S  S   S  S  S  S  S  E.   Q
------------------------------------------------|
--17h---19-17p-14-------------------------------|
------------------16p-14------------------------|
-------------------------16-14------------------|
-------------------------------16--x------------|
-------------------------------------14---14----|


           |--3--| |--3--| |--3--| |---3--|
  E  E  E  S  S  S S  S  S S  S  S S   S  S  E
------------------------------------------------|
------------------------------------------------|
------------------------------------------------|
-----------4h-6p-4-6h-8p-6-8h-9p-8-9h-11p-9-11--|
-----7--L---------------------------------------|
------------------------------------------------|


                                   tr        tr
                    |----3----|                             |--3--|
  S  E  S S  S S  S E   E  S  S  S E.        H           E  S  S  S Q
------------------------------------------|------------------------------|
------------------------------------------|------------------------------|
------------------------------------------|-------------------------2----|
--9s-8--6-6s-4-4s-2-2s--1--2s-4p-2-4(2)---|--4(2)--------4--4p-2h-4------|
------------------------------------------|------------------------------|
------------------------------------------|------------------------------|


                                                                     W
                                                          |--3-|
  S   E  S S  S  S S  S S S S S S S  S     S S S S S S  S  S S E E  E   E
--------------------------------5-7b-7pbr-|--L-L-5--------------------------|
----------------------------5-7-----------|--------7-5-------------12-----1-|
--4br-L--2---------2s-4-5-6---------------|------------6s-4p-2--------------|
-----------4p-2h-4------------------------|--------------------4------------|
------------------------------------------|---------------------------------|
------------------------------------------|---------------------------------|


                     |--3--|  |--3--|   |--3--|
   Q    S  S  S   S  S  S  S  S  S  S   S  S  S  S  S
------------------------------------------------14-----|
---L---------14h-17----------14-17--------14-17----17b-|
----------16-----------14-16-------14h-16--------------|
--------------------16---------------------------------|
-------------------------------------------------------|
-------------------------------------------------------|


   E.   S  Q        S  S E  E   E
-------14-17pbr-----L--L--------------|
---L---------------------------12pbr--|
-------------------------0--L---------|
--------------------------------------|
--------------------------------------|
--------------------------------------|


           |--3--|            |-3-|
   E.   S  S  S  S  T  T  T T S S S S S S E.
----------------------------------------------|
---L----L-10----------------------------------|
-------------11p-9----------------------------|
-------------------11s-9p-7-------7-----------|
----------------------------9-7-9---9-7-------|
----------------------------------------7-9---|


              |-3-| |-3-|                                     |-3-|
  S S T T T T S S S S S S Q    Q       S S E  E   S S Q    E  S S S
------------------------------------|-------------------------------|
------------------------------------|-------------------------------|
------------------------------------|---------------------------2-4-|
----------2-4---------2-5-L---------|------------/4-2-L----L--4-----|
------2-4---------2-4----------4----|--L-2-2--2---------------------|
--2-5---------2-5-------------------|-------------------------------|


                               Bm7       C#m7
  Q.      E    H               H         S    S  S  S  S  S  S  S
------------------------|-----------------------------------14-18-|
------------------------|-----------------------------14-17-------|
--4b------4pb--L--------|-----------------------15-16-------------|
------------------------|--14g16--------14---16-------------------|
------------------------|-----------------------------------------|
------------------------|-----------------------------------------|


   F#m7
   Q     S  S   S  S   S  S   S  S   Q
---L----14-----14-----14-----14-----------|
-----------17b----17b----17b----17b--L----|
------------------------------------------|
------------------------------------------|
------------------------------------------|
------------------------------------------|


  Bm7                                      C#m7
            |--3--|              |--3--|  |---3---|  |--3--|  |--3--|  |--3--
   T  T  T  T  S  S  S  T  T  T  T  S  S  S  S    S  S  S  S  S  S  S  S  S
--17-14-----------------------------------------------------------------------|
--------17-14-------17-14-----------------------------------------------------|
--------------16-14-------16-14------16-14------------------------------------|
---------------------------------16-14-----16---14------------16-14-----------|
----------------------------------------------------16-14------------16-14----|
----------------------------------------------------------17-14------------17-|


   F#m7
   |---3---|  |--3--|  |--3--|  |--3--|  |--3--|  |--3--|
   S    S  S  S  S  S  S  S  S  S  S  S  S  S  S  S  S  S  E  E
-----------------------------------------------------------------|
-----------------------------------------------------------------|
-----------------------------------------------------------------|
--16---14-------------16-14-------------16-14-------------16-----|
----------16-14-------------16-14-------------16-14--------------|
----------------17-14-------------17-14-------------17-14--------|


   Bm7                                 C#m7
               |--3-|  |--3--|  |--3-| |---3---|  |--3-| |--3-|
   T  T  T  T  S S  S  S  S  S  S S  S S     S S  S S  S S  S S  T  T  T T
--14p-9--------------------------------------------------------------------|
--------14p-9----9-14p-9--------------------------------------9-10-12-10-9-|
--------------14---------14p-9---------------------------9-11--------------|
-------------------------------14-9-----------------9-14-------------------|
------------------------------------14---------9-14------------------------|
---------------------------------------9----14-----------------------------|


   Bm7                               C#m7
                                     TP    TP  TP
   E.  T   T T   T T   T  T T  T  T  Q     E   E
----------------------------9-10-12-14----16--17--|
-------------------9h-10-12-----------------------|
--11---------9h-11--------------------------------|
-------9h-11--------------------------------------|
--------------------------------------------------|
--------------------------------------------------|


   Bm7                 C#m7         Bm7
   TP  TP  TP  TP  TP  TP           TP
           |---3---|
   E   E   E   E   E   H            H
--19--17--16--17--19--21--------|--21--------|
--------------------------------|------------|
--------------------------------|------------|
--------------------------------|------------|
--------------------------------|------------|
--------------------------------|------------|


   C#m7
   S    E.    S  E.    S  E.    S  E.
--14------------------------------------|
-------17b----L-17b----L-17b----L-17b---|
----------------------------------------|
----------------------------------------|
----------------------------------------|
----------------------------------------|


                                                  F#m7
                                                  tr
   S  E    S   S  E    S   S  E    S   S  E.      W
-----------------------------------------------|----------------------|
---L-17b--17b--L-17b--17b--L-17b--17b--L-17\---|----------------------|
-----------------------------------------------|----------------------|
-----------------------------------------------|--2(4)----------------|
-----------------------------------------------|----------------------|
-----------------------------------------------|----------------------|


                         (F#m)
  tr
  W                      H        S  T  T  S  S S  E.
----------------------|--------------------------------|
----------------------|--------------------------------|
----------------------|--------------------------------|
--2(4)----------------|--4--------Lp-2h-4p-2s-1-Ls-2---|
----------------------|--------------------------------|
----------------------|--------------------------------|


         TP   TP  TP TP  TP
  E   E  Q    E.  S  E   E
----------------------------|
----------------------------|
----------------------------|
--4s--6--8----9---8--9--11--|
----------------------------|
----------------------------|


   TP                                                      TP
                                         |--3--|  |--3--|
   Q     S  T   T   S T   T  T  T  T  T  S  S  S  S  S  S  E
--------------------------------------------------------------|
--------------------------------------------------------------|
--------------------------------------------------------------|
--13-----L-11h-13p-11-9h-11p-9s-8h-9p-8s-6h-8p-6s-4h-6p-4s-2--|
--------------------------------------------------------------|
--------------------------------------------------------------|


  TP                  TP       TP  TP    TP
  W                   H        E   Q     E
-------------------|------------------------|
-------------------|------------------------|
-------------------|------------------------|
--2----------------|--4--------4s--6s----8--|
-------------------|------------------------|
-------------------|------------------------|


  TP TP
                  |---3--|   |---3--|   |--3--|
  E  Q.     S  S  S  S   S   S   S  S   S  S  S
-------------------------------------------------|
-------------------------------------------------|
-------------------------------------------------|
--9--8------Ls-9-11p-9h-11s-13p-11p-9h-11p-9s-8h-|
-------------------------------------------------|
-------------------------------------------------|


          TP    TP  TP TP        TP                  TP
  |--3--|
  S  S  S E  S  E.  E  Q.        W                   W
------------------------------|-------------------|-------------------|
------------------------------|-------------------|-------------------|
------------------------------|-------------------|-------------------|
--9p-8s-6-6--Ls-4---4--2------|--2----------------|--2----------------|
------------------------------|-------------------|-------------------|
------------------------------|-------------------|-------------------|


  TP           TP      TP     TP TP          TP
  H.           Q       Q.     E  H           W
--------------------|---------------------|-------------------|
--------------------|---------------------|-------------------|
--------------------|---------------------|-------------------|
--2-----------------|---------------------|-------------------|
---------------2----|--2------------------|-------------------|
--------------------|---------2--2--------|--2----------------|


  Bm7          C#m7
  Q    S S S S S    S S S E  E
----------------------2-6-L-----|
---------------2----5-----------|
-----------3-4------------------|
--4----2-4----------------------|
--------------------------------|
--------------------------------|


   F#m7
  T    T  T   T  T   T  T   T  T   T  T   T  T   T  T   T  T   T  T   T  T
--17p--14---------------------------------------------------------------------|
----------17p-14--------17p-14--------17p-14----------------------------------|
-----------------16p-14--------16p-14------16p-14--------16p-14---------------|
--------------------------------------------------16p-14--------16p-14-16p-14-|
------------------------------------------------------------------------------|
------------------------------------------------------------------------------|


   Bm7                C#m7
   E  E   S   S S  S  S    S S S  S S  E
------------------12-17---12---7-12-5s-7--|
--10-----10s-12---12-17---12---7-12-5s-7--|
----------9s-11---------------------------|
------------------------------------------|
------------------------------------------|
------------------------------------------|


   S  S  S  S  S  S  S  S  S  S  S  S  S  E.
----------------------------------------------|
--14-14--x-14--x--x-14-14--x-14--x--x--x-16---|
--14-14--x-14--x--x-14-14--x-14--x--x--x-16---|
--14-14--x-14--x--x-14-14--x-14--x--x--x-16---|
----------------------------------------------|
----------------------------------------------|


   Bm7                     C#m7
   E   S  S  S   S  S   S  S    E.    S    E.
-------------------------------------------------|
-------------------------------------17---17-----|
--14----------------------14---16b---16pb-16pb---|
-------x--x-14h-16-14h-16------------------------|
-------------------------------------------------|
-------------------------------------------------|


   Bm7                   C#m7
   S    E.     E   S  S  S    S  S  S  S  S  S  S
--------------------------------------------------|
--17---17------L----------------------------------|
--16pb-16pb----L----------------------14----------|
-----------------------------------------16--x--x-|
------------------14-15-16---14-15-16-------------|
--------------------------------------------------|


   Bm7          C#m7
            TP  TP   TP  TP TP  TP TP     TP
   Q.       E   S    E   S  E   S  S      H
-----------11--11---12--14-14--16-17s-|--19--------|
--12b---------------------------------|------------|
--------------------------------------|------------|
--------------------------------------|------------|
--------------------------------------|------------|
--------------------------------------|------------|


   C#m7
   S    E.    S  E.    Q      Q
---L---19b----L-19b---19b----19b----|
------------------------------------|
------------------------------------|
------------------------------------|
------------------------------------|
------------------------------------|


                                                   F#m7
  S  S  S  S  S  S  S  S  S  S  S  S   E     E     W
----19b---19b---19b---19b---19b---19b--L\-------|-------------------|
------------------------------------------------|-------------------|
------------------------------------------------|-------------------|
-------------------------------------------2g4--|--L----------------|
------------------------------------------------|-------------------|
------------------------------------------------|-------------------|


  W                      E.  S S S S   S S  S S S  S  S S  S
-------------------|-----------------------------------------|
-------------------|------------------------------12-12---11-|
-------------------|--9g11---9-x-x-------9-11---9------------|
--L----------------|-----------x-x-9h-11---------------------|
-------------------|-----------------------------------------|
-------------------|-----------------------------------------|


   Q    S S S S S S  S  S  S  E.      E  E   S S S  S  E  E   S  S  S S
--------------------12-12-12-12\---|------------------------------------|
---L----x-9-x-x-x-x-12-12-12-12\---|------------------------------------|
--------x-9-x-x-x-x--9--9--9--9\---|----------------------9-------------|
--------x-9-x-x-x-x----------------|-----------9---11--L-----11p-9------|
-----------------------------------|-----9--12---------------------12-9-|
-----------------------------------|------------------------------------|


  E  S S S S S S S S S S S E.        E.  S S S S   S S  S S S  S  S S  S
-------------------------------|-----------------------------------------|
-------------------------------|------------------------------12-12---11-|
-----x-x-x-9-x-x-x-x-9-9-9-9---|--9g11---9-x-x-------9-11---9------------|
-----x-x-x-9-x-x-x-x-9-9-9-9---|-----------x-x-9h-11---------------------|
--L----------------------------|-----------------------------------------|
-------------------------------|-----------------------------------------|


  Q    S  E.     S  S  S  S S  E.       E    E   S S S  S  E  E   S  S  S S
----------12br----Lp-9-------9-------|--------------------------------------|
---L-------------------12-12---12b---|---L\---------------------------------|
-------------------------------------|-------------------------9------------|
-------------------------------------|--------------9---11--L-----11p-9-----|
-------------------------------------|-------/9--12--------------------12-9-|
-------------------------------------|--------------------------------------|


                                   D             E
  E  S S S S S S S S S S S  E.     E    E  E  E  E     E  E  E
--------------------------------|-------------------------------|
---------------------------11---|----------7--------------9-----|
-----x-x-x-9-x-x-x-x-9-9-9-11---|----------7--------------9-----|
-----x-x-x-9-x-x-x-x-9-9-9-11---|----------7--------------9-----|
--L-----------------------------|--5--7g9-----9--7--9g11--------|
--------------------------------|-------------------------------|


  F#m7                               D             E
  E    E  S S S S S S S S S  S E     E    E  E  E  E     E  E  E
----------------------------------|-------------------------------|
----------2-2---2---------4p-2-4--|----------7--------------9-----|
----------2-2---2---------4p-2-4--|----------7--------------9-----|
----------2-2---2---------4p-2-4--|----------7--------------9-----|
----------------------------------|--5--7g9-----9--7--9g11--------|
--2----2------------x---2---------|-------------------------------|


  F#m7                               D             E
  E    E  S S S S S S S S S  S E     E    E  E  E  E     E  E   E
----------------------------------|--------------------------------|
----------2-2---2---------4p-2-4--|----------7--------------9------|
----------2-2---2---------4p-2-4--|----------7--------------9------|
----------2-2---2---------4p-2-4--|----------7--------------9------|
----------------------------------|--5--7g9-----9--7--9g11-----11--|
--2----2------------x---2---------|--------------------------------|


  D             E                 Bm7           C#m7
  E    E  E  E  E     E  E  E     E   E  E  S S S    S E  E  S S
-------------------------------|---------------------------------|
----------7--------------9-----|---------7--x-x-----------9--x-x-|
----------7--------------9-----|---------7--x-x-----------9--x-x-|
----------7--------------9-----|---------7--x-x-----------9--x-x-|
--5--7g9-----9--7--9g11--------|---------------------------------|
-------------------------------|--7---7---------9----x-9---------|


  Bm7
  E   E  E  S S    S E  S S E  S S E  S S E  S
----------------|------------------------------|
---------7--x-x-|----9--9---9--9---9--9---9--9-|
---------7--x-x-|----9--9---9--9---9--9---9--9-|
---------7--x-x-|----9--9---9--9---9--9---9--9-|
----------------|------------------------------|
--7---7---------|------------------------------|


                                     F#m7
  S S S S S S S S S S S S S S E      E.    S   E   E    S  E.    Q
---------------------------------|--14----14---L--14----L-14----14\----|
----9---9---9---9---9---9-9-9----|--17b---17b--L--17b---L-17b---17\----|
----9---9---9---9---9---9-9-9----|-------------------------------------|
----9---9---9---9---9---9-9-9----|-------------------------------------|
---------------------------------|-------------------------------------|
---------------------------------|-------------------------------------|


                                                            |--3--|  |--3--|
  T  T  T  T  T  T  T  T  T  T  T  T  T  T  T  T  T  T  T  T  S  S  S  S  S
--17-14-----------------------------------------------------------------------|
--------17-14-------17-14-------17-14-----------------------------------------|
--------------16-14-------16-14-------16-14------16-14------------------------|
--------------------------------------------16-14------16-14---------16-14----|
-------------------------------------------------------------16---16-------16-|
----------------------------------------------------------------14------------|


   |--3--|  |--3--|  |--3--|  |--3--|  |--3--|  |--3--|
   S  S  S  S  S  S  S  S  S  S  S  S  S  S  S  S  S  S  Q
---------------------------------------------------------------|
---------------------------------------------------------------|
---------------------------------------------------------------|
--16-14-------------16-14-------------16-14-------------16\----|
--------16-14-------------16-14-------------16-14--------------|
--------------16-14-------------16-14-------------16-14--------|


                                    TP   TP  TP  TP  TP  TP
            |--3-|  |--3--| |--3-|  |----3---|   |---3---|
  T  T T  T S  S S  S  S  S E    S  E    E   E   E   E   E
-----------------9-12p-9----------------16--17--19--17--16--|
------------9-10---------10-9s--15-17b----------------------|
-------9-11-------------------------------------------------|
--8-11------------------------------------------------------|
------------------------------------------------------------|
------------------------------------------------------------|


                   |---3--|                  |---3--|           |--3--| |--3-
 T   T    T   T  S   S  S  T   T    T   T  S   S  S T   T T   T S   S  S  S
---------------14-19p-14-17--------------14-19p-14-17-------------------------|
----------(17)----------------------(17)------------------------9h-10p-9------|
-----(16)---------------------(16)------------------------9h-11---------11p-9-|
--14----------------------14-----------------------9h-12----------------------|
------------------------------------------------------------------------------|
------------------------------------------------------------------------------|


   T  T  T  T  T  T  T  T  T  T  T  T  S S  T  T  T  T  T  T  S Q
--14p-9--------------------------------------------------------------|
--------14p-9----------------------------x---------------------------|
--------------14p-9------------------------14-13-11------------------|
--------------------14p-9---------------------------14-12-11---------|
--------------------------14p-9------------------------------14------|
--------------------------------14p-9-10-----------------------------|


   E    Q.      H
--14---14\---------------||
--17b--17\---------------||
-------------------------||
-------------------------||
-------------------------||
-------------------------||


Duration Legend
---------------
W - whole
H - half
Q - quarter
E - 8th
S - 16th
T - 32nd
X - 64th
. - note dotted
|-n-|  - n-tuplets


Tablature Legend
----------------
L - tied note
x - dead note
g - grace note
(n) - ghost note
> - accentuded note
NH - natural harmonic
AH - artificial harmonic
TH - tapped harmonic
SH - semi harmonic
PH - pitch harmonic
h - hammer on
p - pull off
b - bend
br - bendRelease
pb - preBend
pbr - preBendRelease
brb - bendReleaseBend
\n/ - tremolo bar dip
\n - tremolo bar dive
-/n - tremolo bar Release up
/n\ - tremolo bar inverted dip
/n - tremolo bar return
-\n - tremolo bar Release down
S - shift slide
s - legato slide
/ -  slide into from below or out of upwards
\ -  slide into from above or out of downwards
~ - vibrato
W - wide vibrato
tr - trill
TP - tremolo picking
T - tapping
S - slap
P - pop
< - fade in
^ - brush up
v - brush down





Comments


Popular Eric Mantel tabs & chords
Affectionately Yours Tabs
Ta-chi Tabs
There Are No Words Tabs
Tribute Tabs


Song lyrics



↑ Back to top | Tablatures and chords are parodies/interpretations of the original songs. You may use it for private study, scholarship, research or language learning purposes only
© 2014 AZChords.com Contact us | Privacy policy | DMCA | Add/correct tabs | Request tabs | Top 50 tabs