>
 >
Tribute

Tribute Guitar Tabs

Eric Mantel - Tribute chords, tabs, tablatures, lyrics

Guitar lessons | Add/correct | Request | Top 50 tabs Artists:  A B C D E F G H I J K L M N O P Q R S T U V W X Y Z 0-9

Tribute Guitar Tabs – Eric Mantel

CD, Sheet music, Poster

Do you like Tribute? Share with your friends now
Tabs
TRIBUTE this is a brilliant song by Eric Mantel (From the 2006 Album The Unstruck Melody)





h = Hammer On
p = Pull Off
/ = slide up
\ = slide down
b = bend
~ = Vibrato
* = Harmonic
||-----|| Repeat Start & End

                                                                         X2
|-------------------12---|--------------------12----||
|-9-------9--------10---|----9--------10-----10----||
|-9--------9--------9----|----9--------9------9-----||
|-9--------9--------9----|----9--------9------------||
|-7--------7-------------|----7--------7------------||
|-0--0--0-----0--0-----0-|-0--0--0--0----0-0----0-0-||

                                                      X2
|-------------------12---|-----------------------12---||
|-9-------9--------10---|----9--------10101010--10---||
|-9--------9--------9----|----9--------9-9-9-9---9----||
|-9--------9--------9----|----9--------9-9-9-9---9----||
|-7--------7-------------|----7--------7-7-7-7--------||
|-0--0--0-----0--0-----0-|-0--0--0--0----0-0--------0-||


Main Theme A
||---------------------------|-------------------------|
||---------------------------|-------------------------|
||-------9-----11/13---13/14-|-(14)--13----11\9-----7-|
||---------------------------|-------------------------|
||-------7-----9-/11---11/12-|-(12)-11-----9-\7-----5-|
||-0--0-----0---------0------|-----------0-------0-----|


|---------------------|---------------------|
|---------------------|---------------------|
|-(7)--7-----6/7\6--4-|-(4)--4--------------|
|---------------------|------------6/7\6----|
|-(5)--5-----4/5\4--2-|-(2)--2--------------|
|---------------------|------------4/5\4--0-|


|-----------------------------|-------------------------|
|-----------------------------|-------------------------|
|---------9-----11/13---13/14-|-(14)--13----11\9-----7-|
|-----------------------------|-------------------------|
|---------7-----9-/11---11/12-|-(12)--11-----9-\7-----5-|
|-(0)--0-----0---------0------|-----------0-------0-----|


|---------------------|------------12-----12-|
|---------------------|------------10-----10-|
|-(7)--7-----6/7\6--4-|-(4)--4-----7------7--|
|---------------------|------------9------9--|
|-(5)--5-----4/5\4--2-|-(2)--2-----7------7--|
|---------------------|----------------------|


|------------------------|------------------------|
|------------------------|------------------------|
|------------------------|------------------7-----|
|---------------------7--|-(7)-----6--0-----------|
|---------------0--5-----|---------------7--------|
|-0-----0--4h5-----------|------------------------|


|-------7-------------------|-----------------------------|
|-7-----7----------------7--|-(7)------7----------------9-|
|-7-----7------7---7-----7--|-(7)------7----------------9-|
|-7-----7------7---7-----7--|-(7)------7----------------9-|
|-10----10-----10--9--------|---------------------7-----7-|
|-7----------------------10-|-(10)-----10-----7h9----0----|

               8va. . . . . . . . . . .
|----------------------------16-|-(16)-----12-----------------------|
|-(9)--------------------12-----|---------------15--12--------------|
|-(9)-------------13h14---------|----------------------14-13(13)\--|
|-(9)-----12--14----------------|-----------------------------------|
|-(7)---------------------------|-----------------------------------|
|-------------------------------|-----------------------------------|


|-------7-------------------|-----------------12----12-|
|-7-----7----------------7--|-(7)------7------10----10-|
|-7-----7------7---7-----7--|-(7)------7------7-----7--|
|-7-----7------7---7-----7--|-(7)------7------9-----9--|
|-10----10-----10--9--------|-----------------7-----7--|
|-7----------------------10-|-(10)-----10--------------|


Main Theme B

|------------------16-----16h17-|-(17)-----16------------|
|-------17-----19---------------|----------------1917\--|
|-------------------------------|------------------------|
|-------------------------------|------------------------|
|-------------------------------|------------------------|
|-0-----------------------------|------------------------|


                                                  full
|---------------------------|--------------------------------|
|-/15----15----14h15p14-----|-----------------------/\-------|
|------------------------16-|-(16)----16----14(14)'  `13h14-|
|---------------------------|--------------------------------|
|---------------------------|--------------------------------|
|---------------------------|--------------------------------|


|---------------------------------|-----------------------------|
|---------------------------------|-----------------------------|
|-p13\10--9----(9)----------------|-----------------------------|
|------------------12h14p12-11h12-|-p11-9h11p9-7h9p7\6----------|
|---------------------------------|---------------------7--7--0-|
|---------------------------------|-----------------------------|

|---------------------|------------------------|-----------------------|
|---------------------|------------------------|-----------------------|
|---------------------|------------------------|-----------------------|
|---------------------|------------------------|---------------------7-|
|-5----5----4h5--4----|------------------------|---------------0--5----|
|-------------------7-|-(7)----7----5--7--5--0-|-(0)----04h5----------|


|----------------------|-------7-------------------|
|----------------------|-7-----7----------------7--|
|-----------------7----|-7-----7------7---7-----7--|
|-(7)----6--0----------|-7-----7------7---7-----7--|
|--------------7-------|-10----10-----10--9--------|
|----------------------|-7----------------------10-|


|----------------------------|
|-(7)-----7----------------9-|
|-(7)-----7----------------9-|
|-(7)-----7----------------9-|
|--------------------7-----7-|
|-(10)----10----7h9-----0----|


               8va. . . . . . . . . . .
|----------------------------16-|-(16)-----12-----------------------|
|-(9)--------------------12-----|---------------15--12--------------|
|-(9)-------------13h14---------|----------------------14-13(13)\--|
|-(9)-----12--14----------------|-----------------------------------|
|-(7)---------------------------|-----------------------------------|
|-------------------------------|-----------------------------------|


|-------7-------------------|-----------------12----12-||
|-7-----7----------------7--|-(7)------7------10----10-||
|-7-----7------7---7-----7--|-(7)------7------7-----7--||
|-7-----7------7---7-----7--|-(7)------7------9-----9--||
|-10----10-----10--9--------|-----------------7-----7--||
|-7----------------------10-|-(10)-----10--------------||


Bridge

|-----------------------------|------10p9---------------|
|-------10---------12(12)\---|-7----------10--------9--|
|-----------------------------|-------------------------|
|-----------------------------|-------------------9-----|
|-----------------------------|----------------7--------|
|-10--------9--(9)----------7-|-(7)---------------------|

                                         8va . . . . . . . . x2
||------------------------------|---------------19p14---------||
||-------10---------12(12)-----|--------------------17-------||
||------------------------------|----------------------16-----||
||------------------------------|-------------------------14--||
||------------------------------|-----------------------------||
||-10--------9--(9)----------12-|-(12)----12------------------||


|----------------------|------------------------|
|-2----2--2--2--3----4-|-(4)----4--4-4--5----5-|
|-2----2--2--2--2----4-|-(4)----4--4--4--4----5-|
|-2----2--2--2--2----4-|-(4)----4--4--4--4----5-|
|----------------------|------------------------|
|-3----3--3--3--3----5-|-(5)----5--5--5--5----6-|


|------------------------------|---------------------------|
|-(5)--6----7--(7)-8-(8)--9--|-(9)-----9--9--9--10----11-|
|-(5)--5----7--(7)--7--(7)--9--|-(9)-----9--9--9--9-----11-|
|-(5)--5----7--(7)--7--(7)--9--|-(9)-----9--9--9--9-----11-|
|------------------------------|---------------------------|
|-(6)--6----8--(8)--8--(8)--10-|-(10)----10-10-10-10----12-|


|--------------------------------|----------------------------|
|-(11)--12----12--(12)-13---13-|-(13)--13--13--13--14----14-|
|-(11)--11----12--(12)--12----13-|-(13)--13--13--13--13----14-|
|-(11)--11----12--(12)--12----13-|-(13)--13--13--13--13----14-|
|--------------------------------|----------------------------|
|-(12)--12----12--(12)--13----14-|-(14)--14--14--14--14----15-|


|-------------------------|-------------------------|
|----14----14----14----14-|-(14)--------------------|
|----14----14----14----14-|-(14)--------------------|
|----14----14----14----14-|-(14)--------------------|
|-------------------------|-----------------------2-|
|----15----15----15----15-|-(15)------------------0-|


Slide Solo
8va . . . . . . . . . . . . . . . . . . . . . . . . . . . . . . . . . . .
|------12------12--(12)------12------|-----17------17--(17)------17-----|
|------12------12--(12)------12------|-----17------17--(17)------17-----|
|-/12------12------------12------12/-|/17------17------------17------10/|
|------------------------------------|----------------------------------|
|------------------------------------|----------------------------------|
|------------------------------------|----------------------------------|

8va . . . . . . . . . . . . . . . . . . . . . . . . . . . . . . . . . . .
|------12------12--(12)----------/17-|----17----17----17------17-------|
|------12------12--(12)----------/17-|----17----17----17------17-------|
|-/12------12------------12------/17-|----17----17----17------17----10/|
|----------------------------12------|---------------------------------|
|------------------------------------|---------------------------------|
|------------------------------------|---------------------------------|

8va . . . . . . . . . . . . . . . . . . . . . . . . . . . . . . . . . . .
|------12------12--(12)------12------|-----17------17--(17)------17-----|
|------12------12--(12)------12------|-----17------17--(17)------17-----|
|-/12------12------------12------12/-|/17------17------------17------17/|
|------------------------------------|----------------------------------|
|------------------------------------|----------------------------------|
|------------------------------------|----------------------------------|

8va . . . . . . . . . . . . . . . . . . . . . . . . . . . . . . . . . . .
|-----17------17--(17)------17-----|--------------24--(24)--24------24-|
|-----17------17--(17)------17-----|------24--------------------24-----|
|/17------17------------17------17/|-/24------24-----------------------|
|----------------------------------|-----------------------------------|
|----------------------------------|-----------------------------------|
|----------------------------------|-----------------------------------|

|-(24)/-------------29-|
|----------------------|
|----------------------|
|----------------------|
|----------------------|
|----------------------|


Bridge 2

|----------------------|------------------------|
|-2----2--2--2--3----4-|-(4)----4--4-4--5----5-|
|-2----2--2--2--2----4-|-(4)----4--4--4--4----5-|
|-2----2--2--2--2----4-|-(4)----4--4--4--4----5-|
|----------------------|------------------------|
|-3----3--3--3--3----5-|-(5)----5--5--5--5----6-|


|------------------------------|---------------------------|
|-(5)--6----7--(7)-8-(8)--9--|-(9)-----9--9--9--10----11-|
|-(5)--5----7--(7)--7--(7)--9--|-(9)-----9--9--9--9-----11-|
|-(5)--5----7--(7)--7--(7)--9--|-(9)-----9--9--9--9-----11-|
|------------------------------|---------------------------|
|-(6)--6----8--(8)--8--(8)--10-|-(10)----10-10-10-10----12-|


|--------------------------------|----------------------------|
|-(11)--12----12--(12)-13---13-|-(13)--13--13--13--14----14-|
|-(11)--11----12--(12)--12----13-|-(13)--13--13--13--13----14-|
|-(11)--11----12--(12)--12----13-|-(13)--13--13--13--13----14-|
|--------------------------------|----------------------------|
|-(12)--12----12--(12)--13----14-|-(14)--14--14--14--14----15-|


|--------------------------|
|----14----14----14--(14)\-|
|----14----14----14--(14)\-|
|----14----14----14--(14)\-|
|--------------------------|
|----15----15----15--(15)\-|


|-------------------12---|--------------------12----||
|-9-------9--------10---|----9--------10-----10----||
|-9--------9--------9----|----9--------9------9-----||
|-9--------9--------9----|----9--------9------------||
|-7--------7-------------|----7--------7------------||
|-0--0--0-----0--0-----0-|-0--0--0--0----0-0----0-0-||


|-------------------12---|-(12)-------||
|-9-------9--------10---|-(10)-------||
|-9--------9--------9----|-(9)--------||
|-9--------9--------9----|-(9)--------||
|-7--------7-------------|------------||
|-0--0--0-----0--0-------|------------||





Comments


Popular Eric Mantel tabs & chords
Affectionately Yours Tabs
Ta-chi Tabs
There Are No Words Tabs
Wings Of Fire Tabs


Song lyrics



↑ Back to top | Tablatures and chords are parodies/interpretations of the original songs. You may use it for private study, scholarship, research or language learning purposes only
© 2014 AZChords.com Contact us | Privacy policy | DMCA | Add/correct tabs | Request tabs | Top 50 tabs