>
 >
There Are No Words

There Are No Words Guitar Tabs

Eric Mantel - There Are No Words chords, tabs, tablatures, lyrics

Guitar lessons | Add/correct | Request | Top 50 tabs Artists:  A B C D E F G H I J K L M N O P Q R S T U V W X Y Z 0-9

There Are No Words Guitar Tabs – Eric Mantel

CD, Sheet music, Poster

Do you like There Are No Words? Share with your friends now
Tabs
"There Are No Words" by Eric Mantel (From the 2006 Album The Unstruck Melody)
                            




      Cadd9          Dadd9/F#       Em       G/B    C     Gmaj7/D       
      Q     E   E    E        E  E  E     E  E   E  E  E  E       Q     
E||---------0-------10--------0--------|-------------------------------|
B||---8-------------10-------10-----8--|-----3------5-----7-------L----|
G||*--7-----------------------------0--|-----0------0-----0-------L----|
D||*-----------------------------------|-------------------------------|
A||------------(0)---9--------------7--|-----2------3-----5-------L----|
E||---8--------------------------------|-------------------------------|


  Cadd9          Dadd9/F#       Em        G      Am7    G/B      
  Q     E   E    E        E  E  E     E   E  E   E  E   E  Q     
--------0-------10--------0--------|----------------------------|
--8-------------10-------10-----8--|-----12-----13-----15--L----|
--7-----------------------------0--|------0------0------0--L----|
-----------------------------------|----------------------------|
-----------(0)---9--------------7--|-----10-----12-----14--L----|
--8--------------------------------|----------------------------|


  Cadd9          Dadd9/F#       Em       G/B    C     Gmaj7/D       
  Q     E   E    E        E  E  E     E  E   E  E  E  E       Q     
--------0-------10--------0--------|-------------------------------|
--8-------------10-------10-----8--|-----3------5-----7-------L----|
--7-----------------------------0--|-----0------0-----0-------L----|
-----------------------------------|-------------------------------|
-----------(0)---9--------------7--|-----2------3-----5-------L----|
--8--------------------------------|-------------------------------|


  Cadd9          Dadd9/F#       Em        G      Am7    G/B      
  Q     E   E    E        E  E  E     E   E  E   E  E   E  Q     
--------0-------10--------0--------|----------------------------|
--8-------------10-------10-----8--|-----12-----13-----15--L----|
--7-----------------------------0--|------0------0------0--L----|
-----------------------------------|----------------------------|
-----------(0)---9--------------7--|-----10-----12-----14--L----|
--8--------------------------------|----------------------------|


  Cmaj9     Em/B                         Em7    D      C      D      
  Q     E   E   E   S  S  S  S E         E  E   E  E   E  E   E  E   
-----------12---------------------|---------------------------------|
--8--------12---------------------|--11g12-----10------8-----10-----|
--7-------------------------12----|--11g12-----11------9-----11-----|
--9-------------------------------|--11g12-----12-----10-----12-----|
-------------------12-13-14-------|---------------------------------|
--8--------(7)--------------------|---------------------------------|


  Cmaj9    Bm7             Aadd9/E                      D      
  Q     E  E   E  S  S  E  E          E  E  E  E  E  E  E  E   
-----------------------------------|--------------------------|
--8--------7---L--7h-8p-7--5-------|--------------5-----7-----|
--7--------7---L-----------4-------|--------------4-----7-----|
--9--------7---L-----------7-------|--------------7-----7-----|
---------------------------4-------|--------------4-----5-----|
--8--------7---L-----------0-------|--L--0--0--0--------------|


  Cmaj9     Em/B                         Em7    D      C      D      
  Q     E   E   E   S  S  S  S E         E  E   E  E   E  E   E  E   
-----------12---------------------|---------------------------------|
--8--------12---------------------|--11g12-----10------8-----10-----|
--7-------------------------12----|--11g12-----11------9-----11-----|
--9-------------------------------|--11g12-----12-----10-----12-----|
-------------------12-13-14-------|---------------------------------|
--8--------(7)--------------------|---------------------------------|


   Ebmaj9    Dm7                 Cadd9/E                     E7sus4       
   Q     E   E   E   S   S   E   E          E  E  E   E  E   E      Q     
----------------------------------------|------7------------10------L----|
--11--------10---L--10h-11p-10---8------|---L--8------8-----10------L----|
--10--------10---L---------------7------|---L--7------7------7------L----|
--12--------10---L--------------10------|---L--------10------------------|
---------------------------------7------|---L---------7------7------L----|
--11--------10---L----------------------|--------------------------------|


    Ebadd9/G                      G                         
    E       E   E   E   E   Q     E      H.           Q     
---------------10----------15----15--|---L-----------------|
-----------11------13---L--------12--|---L-----------------|
---10--------------------------------|---------------------|
--(13)---------------------------12--|---L-----------------|
--(10)-------------------------------|---------------------|
-------------------------------------|---------------------|


  Slightly faster                                                    
  D/E                           E              Gadd9/B    C#m7       
  Q               Q    E  E  E  E     E  E  E  E       E  E    Q     
-----------------------------------|--------------------------------|
------------------7-------7-----9--|--L--------3----------5----L----|
------------------7-------7-----9--|--L--------2----------4----L----|
------------------7-------7-----9--|--L--------5----------6----L----|
-----------------------------------|-----------2----------4----L----|
--0--------------------------------|-----0--0-----------------------|


  D/E                E               Em7    D/E         D/E                E   
  Q    Q    E  E  E  E     E  E  E   E  E   E   Q       Q    Q    E  E  E  E   
------------------------|----------------------------|------------------------|
-------7-------7-----9--|--L--------12-----10---L----|-------7-------7-----9--|
-------7-------7-----9--|--L--------12-----11---L----|-------7-------7-----9--|
-------7-------7-----9--|--L--------12-----12---L----|-------7-------7-----9--|
------------------------|----------------------------|------------------------|
--0---------------------|-----0--0-------------------|--0---------------------|


           Gadd9/B    C#m7         D/E                E   
  E  E  E  E       E  E    Q       Q    Q    E  E  E  E   
--------------------------------|------------------------|
--L--------3----------5----L----|-------7-------7-----9--|
--L--------2----------4----L----|-------7-------7-----9--|
--L--------5----------6----L----|-------7-------7-----9--|
-----------2----------4----L----|------------------------|
-----0--0-----------------------|--0---------------------|


            Em7    D/E         Em11                A   
  E  E  E   E  E   E   Q       Q    E.  S E  E  E  E   
----------------------------|-------------------------|
--L--------12-----10---L----|-------3---3----7-----5--|
--L--------12-----11---L----|-------2---2----7-----6--|
--L--------12-----12---L----|-------5---5----7-----7--|
----------------------------|-------2---2-------------|
-----0--0-------------------|--0----------------------|


                             Em11                A   
  E  E  E  E  E  E  E  E     Q    E.  S E  E  E  E   
--------------------------|-------------------------|
--------------------------|-------3---3----7-----5--|
--------------------------|-------2---2----7-----6--|
--------------------------|-------5---5----7-----7--|
-----------------2-----5--|-------2---2-------------|
-----2-----5--------------|--0----------------------|


                                     Em11                A   
  E  E  S  E   S     E.   S  Q       Q    E.  S E  E  E  E   
----------------------------------|-------------------------|
----------------------------------|-------3---3----7-----5--|
-----9----11---x-11g12----x-11----|-------2---2----7-----6--|
----------------------------------|-------5---5----7-----7--|
-----7-----9---x--9g10----x--9----|-------2---2-------------|
----------------------------------|--0----------------------|


                             Em11                A   
  E  E  E  E  E  E  E  E     Q    E.  S E  E  E  E   
--------------------------|-------------------------|
--------------------------|-------3---3----7-----5--|
--------------------------|-------2---2----7-----6--|
--------------------------|-------5---5----7-----7--|
-----------------2-----5--|-------2---2-------------|
-----2-----5--------------|--0----------------------|


                                       Em11                  A   
  E  E  S  E   S     E.   S  Q         Q    Q    E  E  E     E   
-----------------------------------||---------------------------|
-----------------------------------||---------------------------|
-----9----11---x-11g12----x-11----*||-------7-------------9g11--|
----------------------------------*||------------9--7-----------|
-----7-----9---x--9g10----x--9-----||---------------------------|
-----------------------------------||--0------------------------|


                                Em11                  A   
  E  E  E  S  S S S E  Q        Q    E.  S E  E  E    E   
-----------------------------|---------------------------|
-----------------------------|---------------------------|
-----7--L-------7-7----7/----|-------7---7---------------|
-----------7h-9--------------|-------7---7-9--7-----7g9--|
-----------------------------|---------------------------|
-----------------------------|--0------------------------|


  E  E  E  S  S S S S S   S  S  S S  
----------------------------------9-|
----------------------------10-12---|
--------------------7-9s-11---------|
-----7--L-------7-9-----------------|
-----------7h-9---------------------|
------------------------------------|


   Em11                               A       
   E.   S E   S   S   E    S   S  E   S   S   
--12p---9----12h-14h-15p--14p-12p-0--14h-15h-|
---------------------------------------------|
---------------------------------------------|
---------------------------------------------|
---------------------------------------------|
---------------------------------------------|


   E    S   S  S  S   S   S  S   S   S  S S S  S   S  
--17p--15p-14p-0-15h-17h-19--Lp-17p-15p-0-L-0-19h-21-|
-----------------------------------------------------|
-----------------------------------------------------|
-----------------------------------------------------|
-----------------------------------------------------|
-----------------------------------------------------|


   Em11                                                                    A    
                                         |---3---|   |---3--|   |---3--|   |---3
   S    S   S  T   T   S   S  S   T   T  S   S   S   S  S   S   S   S  S   S   S
--22p--21p-19-21h-22p-21p-19-22p-21p-19-21h-22p-21p-19-21h-22p-21p-19-21h-22p-21
--------------------------------------------------------------------------------
--------------------------------------------------------------------------------
--------------------------------------------------------------------------------
--------------------------------------------------------------------------------
--------------------------------------------------------------------------------


   |--3--|  |--3--|  |--3--|  |--3--|                      
   S  S  S  S  S  S  S  S  S  S  S  S  E   S     S  Q      
--21-22-21-19-21-22-21-19-21-22-21-19-22--22br~--L-22\----|
----------------------------------------------------------|
----------------------------------------------------------|
----------------------------------------------------------|
----------------------------------------------------------|
----------------------------------------------------------|


   Em11                   A      
   E.   S  S S  E  Q.     S S    
--------------------------------|
--10p---8p-7--------------------|
-------------9p-7--L------9-Lbr-|
--------------------------------|
--------------------------------|
--------------------------------|


       |--3-| |---3--| |---3--|                      
  S S  S S  S S  S   S S  S   S   E    S  S S  S E   
-----------------------7h-9h-10p--L--9g8p-7-Lp-0----|
--------------7h-8h-10------------------------------|
--L------7h-9---------------------------------------|
----7h-9--------------------------------------------|
----------------------------------------------------|
----------------------------------------------------|


   Em11                                                      A   
   |---3--|  |--3--|  |-----5-----|  |---3--|  |--3--|           
   S   S  S  S  S  S  S  S  S  S  S  S   S  S  S  S  S  S  S E   
--12p--7-------------12p-7-------12p-7h-12-12p-7----------------|
---------12p-7-------------12p-7-----------------12p-7----------|
---------------12p-7-----------------------------------12p-7----|
----------------------------------------------------------------|
-------------------------------------------------------------7--|
----------------------------------------------------------------|


  |------5------| |--3--|              |--3-| |--3-|       
  S   S S   S   S S  S  S   T  T  T T  S S  S S  S S Q     
----------------------------------------------------------|
------------------0h-7h-8h-10p-8p-7------8p-7-------------|
------------------------------------9p-7------9p-7-9-L----|
--------7h-10h-12-----------------------------------------|
--7h-12---------------------------------------------------|
----------------------------------------------------------|


   Em11                                            A     
                 |---3---|  |---3--|                     
   S    S  S  S  S   S   S  S   S  S   S  S E  E   E     
----------------14h-15p-14------------------------------|
-------------15------------15p-12-----------------10br--|
----------12----------------------12s-11----------------|
-------14--------------------------------12-------------|
--------------------------------------------------------|
---x----------------------------------------------------|


                                     Em11                        A     
                  |---3--|                                             
   Q.      E   E  S   S  S  E  E     H          E    S  S S  S   S  S  
----------------------------------|-----------------------------------|
---L-------L---L--8h-10p-8s-7--7--|-----------------------7h-8h-10-10-|
----------------------------------|--9s--------(4)s--7h-9-------------|
----------------------------------|-----------------------------------|
----------------------------------|-----------------------------------|
----------------------------------|-----------------------------------|


                                \0/                
   |----3---|                                      
   E   E    E    S  S   S   S   E.    S   S  E.    
-------------------12h-14h-15s-17p---15p-14-------|
---Lp--7s--12h--13--------------------------15h---|
--------------------------------------------------|
--------------------------------------------------|
--------------------------------------------------|
--------------------------------------------------|


   Em11                             A   
                     |---3---|          
   Q     Q     S  S  S   S   S  E   E   
--------------14-15-17p-15p-14--L------|
--17----17-------------------------15--|
---------------------------------------|
---------------------------------------|
---------------------------------------|
---------------------------------------|


             |---3--|  |---3--|  |--3--|   |--3--|  |---3--|      
  E   S   S  S   S  S  S  S   S  S  S  S   S  S  S  S  S   S  E   
-----14p-12------------------------------------------------------|
------------15p-12-------15p-12-------15p-12---------------------|
-------------------14-12--------14-12--------14-12---------------|
---------------------------------------------------14-12h-14-14--|
-----------------------------------------------------------------|
-----------------------------------------------------------------|


   Em11                                    A   
   Q     S   S   S  S  S   S  S  S  S   S  E   
-----------------------------------14h-15-14--|
-----------------------------15-17------------|
--12---------------12-14s-16------------------|
--------14p-12h-14----------------------------|
----------------------------------------------|
----------------------------------------------|


  E  S  S S  S S  S  S  S S  S S   E.   
---------------------------------------|
---------------7h-8-10p-0-8p-7-8h-10---|
----------7h-9-------------------------|
-----7h-9------------------------------|
---------------------------------------|
---------------------------------------|


  Em11                                      A    
                        |--3-|                   
  S    S S  S Q    S  S S  S S  T  T T  T   E    
-------------------------------------7h-9h-10h--|
--8p---7---------------------7h-8-10------------|
---------9p-7-9---------7h-9--------------------|
-------------------7h-9-------------------------|
------------------------------------------------|
------------------------------------------------|


  |--3--| |--3--| |--3-|   |--3--| |-3-|  |-3-| |-3-|     
  S  S  S S  S  S S S  S   S  S  S S S S  S S S S S S E   
--9p-8p-7-----------7h-9h-12p-9p-7---7-------------------|
----------8p-7-10------------------9---9p-7---8----------|
--------------------------------------------9---9-7-0-L--|
---------------------------------------------------------|
---------------------------------------------------------|
---------------------------------------------------------|


   Em11                                         A         
                                  |--3--|       |---3--|  
   S   S   S S   S S S   S  S  S  S S   S S   S S   S  S  
------------------------------------------------7h-12p-7-|
------------------------------------------7h-12----------|
------------------------------------7h-12----------------|
-------------7h-12-7-7h-12-12p-7-12----------------------|
-------7h-12---------------------------------------------|
--12-----------------------------------------------------|


      |---3--|         |---3---|      |---3---|          
  E   S   S  S  S   S  S   S   S  E   S   S   S  E   E   
--0------------14h-15-17p-15p-14-----14h-15p-14--L------|
-----12s-13-17-------------------15-----------------15--|
--------------------------------------------------------|
--------------------------------------------------------|
--------------------------------------------------------|
--------------------------------------------------------|


  Cadd9          Dadd9/F#       Em       G/B    C     Gmaj7/D       
  Q     E   E    E        E  E  E     E  E   E  E  E  E       Q     
--------0-------10--------0--------|-------------------------------|
--8-------------10-------10-----8--|-----3------5-----7-------L----|
--7-----------------------------0--|-----0------0-----0-------L----|
-----------------------------------|-------------------------------|
-----------(0)---9--------------7--|-----2------3-----5-------L----|
--8--------------------------------|-------------------------------|


  Cadd9          Dadd9/F#       Em        G      Am7    G/B      
  Q     E   E    E        E  E  E     E   E  E   E  E   E  Q     
--------0-------10--------0--------|----------------------------|
--8-------------10-------10-----8--|-----12-----13-----15--L----|
--7-----------------------------0--|------0------0------0--L----|
-----------------------------------|----------------------------|
-----------(0)---9--------------7--|-----10-----12-----14--L----|
--8--------------------------------|----------------------------|


  Cadd9          Dadd9/F#       Em       G/B    C     Gmaj7/D       
  Q     E   E    E        E  E  E     E  E   E  E  E  E       Q     
--------0-------10--------0--------|-------------------------------|
--8-------------10-------10-----8--|-----3------5-----7-------L----|
--7-----------------------------0--|-----0------0-----0-------L----|
-----------------------------------|-------------------------------|
-----------(0)---9--------------7--|-----2------3-----5-------L----|
--8--------------------------------|-------------------------------|


  Cadd9          Dadd9/F#       Em        G      Am7    G/B      
  Q     E   E    E        E  E  E     E   E  E   E  E   E  Q     
--------0-------10--------0--------|----------------------------|
--8-------------10-------10-----8--|-----12-----13-----15--L----|
--7-----------------------------0--|------0------0------0--L----|
-----------------------------------|----------------------------|
-----------(0)---9--------------7--|-----10-----12-----14--L----|
--8--------------------------------|----------------------------|


  Cmaj9     Em/B                         Em7    D      C      D      
  Q     E   E   E   S  S  S  S E         E  E   E  E   E  E   E  E   
-----------12---------------------|---------------------------------|
--8--------12---------------------|--11g12-----10------8-----10-----|
--7-------------------------12----|--11g12-----11------9-----11-----|
--9-------------------------------|--11g12-----12-----10-----12-----|
-------------------12-13-14-------|---------------------------------|
--8--------(7)--------------------|---------------------------------|


  Cmaj9    Bm7             Aadd9/E                      D      
  Q     E  E   E  S  S  E  E          E  E  E  E  E  E  E  E   
-----------------------------------|--------------------------|
--8--------7---L--7h-8p-7--5-------|--------------5-----7-----|
--7--------7---L-----------4-------|--------------4-----7-----|
--9--------7---L-----------7-------|--------------7-----7-----|
---------------------------4-------|--------------4-----5-----|
--8--------7---L-----------0-------|--L--0--0--0--------------|


  Cmaj9     Em/B                         Em7    D      C      D      
  Q     E   E   E   S  S  S  S E         E  E   E  E   E  E   E  E   
-----------12---------------------|---------------------------------|
--8--------12---------------------|--11g12-----10------8-----10-----|
--7-------------------------12----|--11g12-----11------9-----11-----|
--9-------------------------------|--11g12-----12-----10-----12-----|
-------------------12-13-14-------|---------------------------------|
--8--------(7)--------------------|---------------------------------|


   Ebmaj9    Dm7                 C#maj9            Cm7             Bmaj9  
   Q     E   E   E   S   S   E   E         Q    E  E   E  S  S  E  E      
---------------------------------------|---------------------------------|
--11--------10---L--10h-11p-10---9-----|---L-------8---L--8h-9p-8--7-----|
--10--------10---L---------------8-----|---L-------8---L-----------6-----|
--12--------10---L--------------10-----|---L-------8---L-----------8-----|
---------------------------------------|---L-----------------------------|
--11--------10---L---------------9-----|---L-------8---L-----------7-----|


                           Rit...                                    
          A#m7             Amaj9             G#m7             Gmaj9  
  Q    E  E    E  S  S  E  E         Q    E  E    E  S  S  E  E      
----------------------------------|---------------------------------|
--L-------6----L--6h-7p-6--5------|--L-------4----L--4h-5p-4--3-----|
--L-------6----L-----------4------|--L-------4----L-----------2-----|
--L-------6----L-----------6------|--L-------4----L-----------4-----|
----------------------------------|---------------------------------|
--L-------6----L-----------5------|--L-------4----L-----------3-----|


          F#m7                
  Q    E  E    E  S  S  Q     
-----------------------------|
--L-------2----L--2h-3p-2----|
--L-------2----L-------------|
--L-------2----L-------------|
-----------------------------|
--L-------2----L-------------|


  Molto rit...                                       
  E6add9                                             
                                              ^      
  S             S  S  S  S  S  S  S  S  S E   Q      
---------------------------12----------------12----||
------------------------12----12-------------12----||
---------------------11----------11----------11----||
------------------11----------------11-------11----||
---------------11----------------------11----11----||
--0---------------------------------------0---0----||




Duration Legend
---------------
W - whole
H - half
Q - quarter
E - 8th
S - 16th
T - 32nd
X - 64th
. - note dotted
|-n-|  - n-tuplets


Tablature Legend
----------------
L - tied note
x - dead note
g - grace note
(n) - ghost note
> - accentuded note
NH - natural harmonic
AH - artificial harmonic
TH - tapped harmonic
SH - semi harmonic
PH - pitch harmonic
h - hammer on
p - pull off
b - bend
br - bendRelease
pb - preBend
pbr - preBendRelease
brb - bendReleaseBend
\n/ - tremolo bar dip
\n - tremolo bar dive
-/n - tremolo bar Release up
/n\ - tremolo bar inverted dip
/n - tremolo bar return
-\n - tremolo bar Release down
S - shift slide
s - legato slide
/ -  slide into from below or out of upwards
\ -  slide into from above or out of downwards
~ - vibrato
W - wide vibrato
tr - trill
TP - tremolo picking
T - tapping
S - slap
P - pop
< - fade in
^ - brush up
v - brush down





Comments


Popular Eric Mantel tabs & chords
Affectionately Yours Tabs
Ta-chi Tabs
Tribute Tabs
Wings Of Fire Tabs


Song lyrics



↑ Back to top | Tablatures and chords are parodies/interpretations of the original songs. You may use it for private study, scholarship, research or language learning purposes only
© 2014 AZChords.com Contact us | Privacy policy | DMCA | Add/correct tabs | Request tabs | Top 50 tabs