>
 >
Ta-chi

Ta-chi Guitar Tabs

Eric Mantel - Ta-chi chords, tabs, tablatures, lyrics

Guitar lessons | Add/correct | Request | Top 50 tabs Artists:  A B C D E F G H I J K L M N O P Q R S T U V W X Y Z 0-9

Ta-chi Guitar Tabs – Eric Mantel

CD, Sheet music, Poster

Do you like Ta-chi? Share with your friends now
Tabs
Tai-Chi by Eric Mantel (From the 2006 Album The Unstruck Melody)




Guitar
     E.  S E  E  Q    S E.     E.  S E  E  Q    S S S S
E||-------------------------|----------------------------|
B||---------------------8---|-----------7--L-------------|
G||--9---9-L--9--L----x-9---|--5---5-L--7--L----x-7---7S-|
D||--9---9-L--9--L----x-9---|--5---5-L--7--L----x-7---7S-|
A||-------------------------|----------------------------|
E||-------------------------|----------------------------|


  E.  S E  E  Q    S E.     E.  S E  E  Q    S S S S
-------------------------|----------------------------|
---------------------8---|-----------7--L-------------|
--9---9-L--9--L----x-9---|--5---5-L--7--L----x-7---7S-|
--9---9-L--9--L----x-9---|--5---5-L--7--L----x-7---7S-|
-------------------------|----------------------------|
-------------------------|----------------------------|


  E.  S E  E  Q    S E.     E.  S E  E  Q    S S S S
-------------------------|----------------------------|
---------------------8---|-----------7--L-------------|
--9---9-L--9--L----x-9---|--5---5-L--7--L----x-7---7S-|
--9---9-L--9--L----x-9---|--5---5-L--7--L----x-7---7S-|
-------------------------|----------------------------|
-------------------------|----------------------------|


  E.  S E  E  Q    S E.     E.  S E  E  Q    S S E
-------------------------|--------------------------|
---------------------8---|-----------7--L-----------|
--9---9-L--9--L----x-9---|--5---5-L--7--L----x-7-L--|
--9---9-L--9--L----x-9---|--5---5-L--7--L----x-7-L--|
-------------------------|--------------------------|
-------------------------|--------------------------|


     E    S  S E    E  Q    S E.      E  E  S E.    Q    Q
-----------------------------------|---------------------------|
--8g10--(10)-8----7g8--L----x-8\---|-----5----7---7g8----7S----|
-----------------------------------|---------------------------|
---5g7---(7)-5----4g5--L----x-x----|-----2----4---4g5----4S----|
-----------------------------------|---------------------------|
-----------------------------------|---------------------------|


  E  S S E   E  Q     S  E.      E   S  S  S  S  S  S  S  S  S  S  S  S  S
------------------------------|-----15-15-----------------------------------|
--5----7----10--L~----x-10\---|-----------17-17-15-15-----------------------|
-------------------------x----|-----------------------16-16-14-14-12-12-----|
--2----4-----7--L~----x--7\---|-----------------------------------------14--|
------------------------------|---------------------------------------------|
------------------------------|---------------------------------------------|


     E    S  S E    E  Q    S E.      E  E  S E.    Q    Q
-----------------------------------|---------------------------|
--8g10--(10)-8----7g8--L----x-8\---|-----5----7---7g8----7S----|
-----------------------------------|---------------------------|
---5g7---(7)-5----4g5--L----x-x----|-----2----4---4g5----4S----|
-----------------------------------|---------------------------|
-----------------------------------|---------------------------|


  E  S S E   E  Q     S  E.      E  S S S S S S S S S S  S  S S S
------------------------------|-----------------------------------|
--5----7----10--L~----x-10\---|-------------------------------8---|
-------------------------x----|-----------------7-7-9-9-11-11-----|
--2----4-----7--L~----x--7\---|-----5-5-7-7-9-9-------------------|
------------------------------|-----------------------------------|
------------------------------|-----------------------------------|


    E   S  S  S  S  E  H
--------------------------------|
--------------------------------|
--/11--12-11--L-12-11--L--------|
--------------------------------|
--------------------------------|
--------------------------------|


  S. T   S  S S  E   S S     S  S  S  S S S  S
-----------------------------------------------|
----------------15--13---10g12--L-10-----------|
-----9S-11-12------------------------12-L---12-|
-----------------------------------------------|
-----------------------------------------------|
-----------------------------------------------|


   S   E   S  S  S  E  H
---------------------------------|
---------------------------------|
--11h-12--11--L------------------|
----------------12-14--L~--------|
---------------------------------|
---------------------------------|


  E   S  S  S  S  S  S  S  S  S  S  S  S  S S
-----15---------------------------------------|
----------------------------------------------|
--------16--L-16-14-14-12-12------------------|
-----------------------------14-14-12-12------|
-----------------------------------------14---|
----------------------------------------------|


   S  S  S  S S  S  E   Q     Q        E     E   S  E   S S T   S.S E  S  S
----------------15-14---L----12~----|---------------------------------------|
-----------15-----------------------|---------------------------------------|
--------12--------------------------|-----9g11--12-14--12---9S-11-9---------|
-----12-----------------------------|-------------------------------12-12-14|
------------------------------------|---------------------------------------|
--15--------------------------------|---------------------------------------|


   S  E   E   S  S   E   Q    E.
----------------------------------|
----------------------------------|
--11-12--11-----------------------|
-------------12-12h-14---L----L---|
----------------------------------|
----------------------------------|


  E   T   S  T  S  E   T   T  S  S  S   S   S   S  E
------------------------------------------------------|
-----10S-12--L-15-13--10S-12--L-10--------------------|
-----------------------------------12p-11h-12p-11-----|
--------------------------------------------------12--|
------------------------------------------------------|
------------------------------------------------------|


     E    S  S E    E  Q    S E.      E  E  S E.    Q    Q
-----------------------------------|---------------------------|
--8g10--(10)-8----7g8--L----x-8\---|-----5----7---7g8----7S----|
-----------------------------------|---------------------------|
---5g7---(7)-5----4g5--L----x-x----|-----2----4---4g5----4S----|
-----------------------------------|---------------------------|
-----------------------------------|---------------------------|


  E  S S E   E  Q     S  E.      E   S  S  S  S  S  S  S  S  S  S  S  S  S
------------------------------|-----15-15-----------------------------------|
--5----7----10--L~----x-10\---|-----------17-17-15-15-----------------------|
-------------------------x----|-----------------------16-16-14-14-12-12-----|
--2----4-----7--L~----x--7\---|-----------------------------------------14--|
------------------------------|---------------------------------------------|
------------------------------|---------------------------------------------|


     E    S  S E    E  Q    S E.      E  E  S E.    Q    Q
-----------------------------------|---------------------------|
--8g10--(10)-8----7g8--L----x-8\---|-----5----7---7g8----7S----|
-----------------------------------|---------------------------|
---5g7---(7)-5----4g5--L----x-x----|-----2----4---4g5----4S----|
-----------------------------------|---------------------------|
-----------------------------------|---------------------------|


  E  S S E   E  Q     S  E.      E  S S S S S S S S S S  S  S S S
------------------------------|-----------------------------------|
--5----7----10--L~----x-10\---|-------------------------------8---|
-------------------------x----|-----------------7-7-9-9-11-11-----|
--2----4-----7--L~----x--7\---|-----5-5-7-7-9-9-------------------|
------------------------------|-----------------------------------|
------------------------------|-----------------------------------|


  S S  S S S S E  H            E   S   S  S   S  S   S H
----------------------------|-----15p-12-------------------------|
--5-------------------------|------------15p-12------------------|
----7-----------------------|-------------------14p-12-L~--------|
------10-9-L----------------|------------------------------------|
-------------5-7--L~--------|------------------------------------|
----------------------------|------------------------------------|


     NH                  ^
     S  S  S  S  S  S    E  H
-------------------12-<>12-----------|
----------12-15--L----<>12--L--------|
-------12-------------<>12--L--------|
--<>12----------------<>12--L--------|
-------------------------------------|
-------------------------------------|


                                                    ^         ^
   S   E   S  S   E   S  S   S  S  S  S  S E        Q.        H        E
--15p-12--12----------------------------------|------------<>12--------L--|
-------------15p-12--12-----------------------|------------<>12--------L--|
------------------------14p-12----12--L-14-L--|--<>12------<>12--------L--|
-------------------------------14-------------|--<>12------<>12--------L--|
----------------------------------------------|---------------------------|
----------------------------------------------|---------------------------|


                                                        ^
   S   S   S  S   S  S E  H             S  S  S  S  E   E  H
--22p-19p-17------------------------|-----------17--L--17--L--------|
-------------19p-17-----------------|-----17-20--------20--L--------|
--------------------19-L--L~--------|--19--------------19--L--------|
------------------------------------|-------------------------------|
------------------------------------|-------------------------------|
------------------------------------|-------------------------------|


  S   E  S Q    S S E   E   E
-------------------------------|
--8S-10--8----------8--10b--L--|
--7S--9--7------7-9------------|
-------------------------------|
-------------------------------|
-------------------------------|


  T  T  T  T  T  T T  T  T  T  T  T T  T  T  T  T  T T  T  T  T  T  T T  T
-----------------------------------------------------------------------------|
-----------------------------------------------------------------------------|
--7h-9p-7h-9p-7h-9-7h-9p-7h-9p-7h-9-7h-9p-7h-9p-7h-9-7h-9p-7h-9p-7h-9-7h-9p--|
-----------------------------------------------------------------------------|
-----------------------------------------------------------------------------|
-----------------------------------------------------------------------------|


  T  T  T  T  T  T T  T  T  T  T  T T  T  T  T  T  T T  T  T  T  T  T T  T
-----------------------------------------------------------------------------|
-----------------------------------------------------------------------------|
--7h-9p-7h-9p-7h-9-7h-9p-7h-9p-7h-9-7h-9p-7h-9p-7h-9-7h-9p-7h-9p-7h-9-7h-9p--|
-----------------------------------------------------------------------------|
-----------------------------------------------------------------------------|
-----------------------------------------------------------------------------|


   S   E   S  S   S E  Q     S  S E     E    Q     E  Q     S  S E
-------------------------------------|------------10--7-------------|
-------------------------------------|-----5g7-------------10-10----|
--11h-12--11-12p-11-9--L----11-11----|------------------------------|
-------------------------------------|------------------------------|
-------------------------------------|------------------------------|
-------------------------------------|------------------------------|


  E  S  S  E   E  H           E   E   S  E   T   T  Q     S  S E
--7--L-10--L--12--L--------|-----12--14-15--15S-17--L----15-14----|
---------------------------|--------------------------------------|
---------------------------|--------------------------------------|
---------------------------|--------------------------------------|
---------------------------|--------------------------------------|
---------------------------|--------------------------------------|


   S  S S  S S  S  E  H
--15-14---12------12--L--------|
---------------15--------------|
-------------------------------|
-------------------------------|
-------------------------------|
-------------------------------|


                                              |--3--|   |---3--|  |---3--|
  E   T   T  T   T  T   T  T   T  T   T  T   T S  S  S   S  S   S  S   S  S
-----15p-12-----------------------------------------------------15p-12--------|
------------15p-12--------15p-12---------------------------------------15p-12-|
-------------------14p-12--------14p-12---------------------------------------|
----------------------------------------14p-12-------------12h-14-------------|
-----------------------------------------------7h-9-12h-14--------------------|
------------------------------------------------------------------------------|


   E.    E.   E  H            E   T   T   S  S  S  S   S  Q    T   T  S  E
---------------------------|-----14h-15p-14---------------------------------|
--------17---17--L~--------|----------------15------------------------------|
--14~----------------------|-------------------16-12S-11-------12h-14p-12-11|
---------------------------|-----------------------------14~----------------|
---------------------------|------------------------------------------------|
---------------------------|------------------------------------------------|


     E.  S S S E  H
----------------------------|
----------------------------|
--9g11---9---7-9--L~--------|
----------------------------|
----------------------------|
----------------------------|


      PM PM
  E   S  S  S  E   S  S  T   T   S  S  S  S   S  S
------------------15--L-14h-15p-14-----------------|
--------------15-------------------15--------------|
--x--------12-------------------------16-12S-11----|
--x-----12--------------------------------------12-|
---------------------------------------------------|
-----15--------------------------------------------|


   E.   S  S  S  E   H           E   Q.       E   E   T   T   S  S  S
-------------14-19~--L--------|-----17b------17--15--14h-15p-14----14-|
----------17------------------|---------------------------------17----|
-------16---------------------|---------------------------------------|
--14--------------------------|---------------------------------------|
------------------------------|---------------------------------------|
------------------------------|---------------------------------------|


                                PM PM
   E  S  S  E   S  S H           S  S  S  S E   T   T   S  S  S  S   S  Q
---L--L-----------------------|----------------14h-15p-14-------------------|
--------17--L--17--L-L--------|-----------15--------------15----------------|
------------------------------|--------12--------------------16-12S-11------|
------------------------------|-----12---------------------------------12~--|
------------------------------|---------------------------------------------|
------------------------------|--15-----------------------------------------|


 Solo
   H          H
------------------------|
------------------------|
--14b--------14~--------|
------------------------|
------------------------|
------------------------|


                                                |---3--|   |---3--|---3---|
  E   T   T  T   T  T   T  T   T  T   T  T   T  S   S  S   S  S   S  S S  S
-----15p-12-------------------------------------------------------------------|
------------15p-12--------15p-12----------------------------------------------|
-------------------14p-12--------14p-12-------14p-12--------------------------|
---------------------------------------14p-12-------14p-12--------14p-12h-14--|p
------------------------------------------------------------14p-12------------|
------------------------------------------------------------------------------|


  |--3-|  |--3--| |--3-|  |--3--| |--3-|  |--3--| |--3-|  |--3--|
  S  S S  S  S  S S  S S  S  S  S S  S S  S  S  S S  S S  S  S  S
------------------------------------------------------------------|
------------------------------------------------------------------|
--9p-7------------9p-7------------9p-7------------9p-7------------|
-------9p-7------------9p-7------------9p-7------------9p-7-------|
------------10p-7-----------10p-7-----------10p-7-----------10p-7-|
------------------------------------------------------------------|


  |--3-|  |--3--| |--3-|  |--3--| |--3-|  |--3--|
  S  S S  S  S  S S  S S  S  S  S S  S S  S  S  S E   E
----------------------------------------------------------|
----------------------------------------------------------|
--9p-7------------9p-7------------9p-7------------9~--L\--|
-------9p-7------------9p-7------------9p-7---------------|
------------10p-7-----------10p-7-----------10p-7---------|
----------------------------------------------------------|


  S  S S S S S S  S E  T  T  T  T E  E
----------------------------------------|
---------8---8-7~-L-L-------------------|
-------7---------------9p-7h-9~-L-L--L--|
--7h-9----------------------------------|
----------------------------------------|
----------------------------------------|


                  T  T
  T  T T   T   T  T  S S  T   T E   T   T  S  E  S  S    E
------------------------------------------------------------|
-------8h-10h-12-15--L-L-13p-12-L--15p-13--------0-19b~--L--|
--7h-9------------------------------------------------------|
------------------------------------------14--L-------------|
------------------------------------------------------------|
------------------------------------------------------------|


   E   S   S   E   E   Q      S S E     E   Q.       Q.       E
------------------19---L~----19-0----|-----22b------22b~---------|
---L---L~-19~--L---------------------|---------------------------|
-------------------------------------|---------------------------|
-------------------------------------|---------------------------|
-------------------------------------|---------------------------|
-------------------------------------|---------------------------|


  |---3--|   |---3--|  |---3--|   |---3--|  |---3--|   |---3--|  |---3---|
  S   S  S   S  S   S  S   S  S   S  S  S  S   S  S   S  S   S  S   S   S  S
--15p-12---------------------------------------------------------------------|
---------15p-12-------15p-12-------------------------------------------------|
---------------14p-12--------14p-12--------14p-12----------------------------|
------------------------------------14p-12-------14p-12-------14p-12h-14p-12-|
--------------------------------------------------------14p-12---------------|
-----------------------------------------------------------------------------|


  |--3-|  |--3--| |--3-|  |--3--| |--3-|  |--3--|
  S  S S  S  S  S S  S S  S  S  S S  S S  S  S  S E   E
----------------------------------------------------------|
----------------------------------------------------------|
--9p-7------------9p-7------------9p-7------------9~--L\--|
-------9p-7------------9p-7------------9p-7---------------|
------------10p-7-----------10p-7-----------10p-7---------|
----------------------------------------------------------|


   |--3--|   |---3--|  |--3--|   |---3--|  |--3--|   |---3--|
   S  S  S   S  S   S  S  S  S   S  S   S  S  S  S   S  S   S  E   E
--19-19-17p-15--------19-19-17p-15--------19-19-17p-15--------19---L\--|
---------------17p-15--------------17p-15--------------17p-15----------|
-----------------------------------------------------------------------|
-----------------------------------------------------------------------|
-----------------------------------------------------------------------|
-----------------------------------------------------------------------|


   |---3---|                                |---3--|
   S   S   S  T   T   T   T   T  T   T   T  S  S   S  T   T   T T  E  Q
----------------------------------------------------------------------------|
-------------12h-13h-15p-13p-12---------------------------------------------|
--11h-12h-14--------------------14p-12p-11S-9-------------------9~-L--L\----|
----------------------------------------------12p-11p-9h-11h-12-------------|
----------------------------------------------------------------------------|
----------------------------------------------------------------------------|


  T T T T T T T T T T T T  T  T  T  T  T  T  T  T  T  T  T  T  T  T  T  T  T
-----------------------------------------------------------------------------|
-----------------------------------------------------------------------------|
--9-9-9-9-9-9-9-9-9-9-9-9-11-11-11-11-11-11-11-11-11-11-11-11-11-11-11-11-11-|
--x-x-x-x-x-x-x-x-x-x-x-x--x--x--x--x--x--x--x--x--x--x--x--x--x--x--x--x--x-|
--7-7-7-7-7-7-7-7-7-7-7-7--9--9--9--9--9--9--9--9--9--9--9--9--9--9--9--9--9-|
-----------------------------------------------------------------------------|


   T  T  T  T  T  T  T  T  T  T  T  T  T  T  T  T  T  T  T  T  T  T  T  T  T
-----------------------------------------------------------------------------|
-----------------------------------------------------------------------------|
--12-12-12-12-12-12-12-12-12-12-12-12-14-14-14-14-14-14-14-14-14-14-14-14-14-|
---x--x--x--x--x--x--x--x--x--x--x--x--x--x--x--x--x--x--x--x--x--x--x--x--x-|
--10-10-10-10-10-10-10-10-10-10-10-10-12-12-12-12-12-12-12-12-12-12-12-12-12-|
-----------------------------------------------------------------------------|

   T  T  T  T  T  T  T  T  T  T  T  T  T  T  T  T  T  T  T  T  T  T  T  T  T
-----------------------------------------------------------------------------|
-----------------------------------------------------------------------------|
--16-16-16-16-16-16-16-16-16-16-16-16-19-19-19-19-19-19-19-19-19-19-19-19-19-|
---x--x--x--x--x--x--x--x--x--x--x--x--x--x--x--x--x--x--x--x--x--x--x--x--x-|
--14-14-14-14-14-14-14-14-14-14-14-14-17-17-17-17-17-17-17-17-17-17-17-17-17-|
-----------------------------------------------------------------------------|


   E.   E.   Q.     Q        W                    H
--------------------------|-------------------|-------------|-------|-------|
--22---22---22------L-----|-------------------|-------------|-------|-------|
--21---21---21------L~----|--L----------------|-------------|-------|-------|
--19---19---19------L~----|--L----------------|---L\--------|-------|-------|
--19---19---19------L~----|--L----------------|---L\--------|-------|-------|
--------------------------|-------------------|-------------|-------|-------|


   S   E   S  E   T   T S H            H        Q.      S   S
------------------------------------|-------------------------|
------------------------------------|-------------------------|
--11h-12--11-12--12p-11-L-L~--------|--L--------L-------------|
------------------------------------|------------------12h-14-|
------------------------------------|-------------------------|
------------------------------------|-------------------------|


   S   E   S S  S  E  H           H.           S  E.      W
-------------------------------|----------------------|--------------------|
-------------------------------|----------------------|--------------------|
--11h-12--11-------------------|---------------7h-9---|--11----------------|
---------------12-14--L--------|----------------------|--------------------|
-------------------------------|----------------------|--------------------|
-------------------------------|----------------------|--------------------|


  H        E  E  S  S E        E    S  S E    E  Q    S E.
-------------------------|-----------------------------------|
-------------------------|--8g10--(10)-8----7g8--L----x-8\---|
-----------------7h-9-L--|-----------------------------------|
--------------9----------|---5g7---(7)-5----4g5--L----x-x----|
-------------------------|-----------------------------------|
-------------------------|-----------------------------------|


  E  E  S E.    Q    Q        E  S S E   E  Q     S  E.
---------------------------|------------------------------|
-----5----7---7g8----7S----|--5----7----10--L~----x-10\---|
---------------------------|-------------------------x----|
-----2----4---4g5----4S----|--2----4-----7--L~----x--7\---|
---------------------------|------------------------------|
---------------------------|------------------------------|


  E   S  S  S  S  S  S  S  S  S  S  S  S  S S
-----15-15------------------------------------|
-----------17-17-15-15------------------------|
-----------------------16-16-14-14-12-12------|
-----------------------------------------14---|
----------------------------------------------|
----------------------------------------------|


     E    S  S E    E  Q    S E.      E  E  S E.    Q    Q
-----------------------------------|---------------------------|
--8g10--(10)-8----7g8--L----x-8\---|-----5----7---7g8----7S----|
-----------------------------------|---------------------------|
---5g7---(7)-5----4g5--L----x-x----|-----2----4---4g5----4S----|
-----------------------------------|---------------------------|
-----------------------------------|---------------------------|


  E  S S E   E  Q     S  E.      E  S S S S S S S S S S  S  S S S
------------------------------|-----------------------------------|
--5----7----10--L~----x-10\---|-------------------------------8---|
-------------------------x----|-----------------7-7-9-9-11-11-----|
--2----4-----7--L~----x--7\---|-----5-5-7-7-9-9-------------------|
------------------------------|-----------------------------------|
------------------------------|-----------------------------------|


     E    S  S E    E  Q    S E.      E  E  S E.    Q    Q
-----------------------------------|---------------------------|
--8g10--(10)-8----7g8--L----x-8\---|-----5----7---7g8----7S----|
-----------------------------------|---------------------------|
---5g7---(7)-5----4g5--L----x-x----|-----2----4---4g5----4S----|
-----------------------------------|---------------------------|
-----------------------------------|---------------------------|


  E  S S E   E  Q     S  E.      E   S  S  S  S  S  S  S  S  S  S  S  S S S
------------------------------|-----15-15-----------------------------------|
--5----7----10--L~----x-10\---|-----------17-17-15-15-----------------------|
-------------------------x----|-----------------------16-16-14-14-12-12-----|
--2----4-----7--L~----x--7\---|-----------------------------------------14--|
------------------------------|---------------------------------------------|
------------------------------|---------------------------------------------|


     E    S  S E    E  Q    S E.      E  E  S E.    Q    Q
-----------------------------------|---------------------------|
--8g10--(10)-8----7g8--L----x-8\---|-----5----7---7g8----7S----|
-----------------------------------|---------------------------|
---5g7---(7)-5----4g5--L----x-x----|-----2----4---4g5----4S----|
-----------------------------------|---------------------------|
-----------------------------------|---------------------------|


  E  S S E   E  Q     S  E.      E  S S S S S S S S S S  S  S S S
------------------------------|-----------------------------------|
--5----7----10--L~----x-10\---|-------------------------------8-L-|
-------------------------x----|-----------------7-7-9-9-11-11-----|
--2----4-----7--L~----x--7\---|-----5-5-7-7-9-9-------------------|
------------------------------|-----------------------------------|
------------------------------|-----------------------------------|


   End Solo
   E        S  S E   E   Q     Q
--19~-------L-17-L--15~--L-----------|
------------------------------19~----|
-------------------------------------|
-------------------------------------|
-------------------------------------|
-------------------------------------|


  E      E    S  S  E   T   T   T T E   E   E         Q.       Q.      Q
-----15g17~---L-15--L--------------------------|----------------------------|
-----------------------19h-20p-19-L-L--17--15--|--15g17~------19~-----------|
-----------------------------------------------|----------------------------|
-----------------------------------------------|----------------------------|
-----------------------------------------------|----------------------------|
-----------------------------------------------|----------------------------|


      PM PM
  E   S  S  S  S  T   T   S  S  S  S   S  Q
-----------------14h-15p-14---------------------|
--------------15------------15------------------|
-----------12------------------16-12S-11--------|
--x--------------------------------------14~----|
--x-----14--------------------------------------|
-----15-----------------------------------------|


     SH        SH      SH          SH
     E    S    S E     E   Q       Q
--<>19~---L-<>17-L--<>15~--L-------------|
--------------------------------<>19~----|
-----------------------------------------|
-----------------------------------------|
-----------------------------------------|
-----------------------------------------|


        SH        SH                       SH    SH
  E     E    S    S  E   T   T   T T E     E     E
-----<>17~---L-<>15--L------------------------------|
------------------------19h-20p-19-L-L--<>17--<>15--|
----------------------------------------------------|
----------------------------------------------------|
----------------------------------------------------|
----------------------------------------------------|


     SH         PH
     Q.         Q.      Q
-------------<>19~-----------|
--<>17~----------------------|
-----------------------------|
-----------------------------|
-----------------------------|
-----------------------------|


       |---3--|  |---3--|   |---3--|  |---3--|   |---3--|  |---3--|   |---3--
  S.  T   S  S   S  S   S  S   S  S   S  S   S  S   S  S   S  S   S  S   S
-----15p-12------------------------------------------------------------------|
------------15p-12--------15p-12-15p-12--------------------------------------|
-------------------14p-12---------------14p-12-------14p-12------------------|
-----------------------------------------------14p-12------14p-12------12h-1-|
------------------------------------------------------------------14p-12-----|
-----------------------------------------------------------------------------|


   E   S  E.   E   Q     Q
-------------------------------|
--15---L-17---17~--L----17\----|
-------------------------------|
-------------------------------|
-------------------------------|
-------------------------------|


                                    |---3--|   |---3--|
  E   T   T   S  S  S  S   S  Q     S   S  S   S   S  S
-----14h-15p-14------------------------------------------|
----------------15------------------------12h-15p-12-----|
-------------------16-12S-11--------9h-11------------11h-|
-----------------------------14~-------------------------|
---------------------------------------------------------|
---------------------------------------------------------|


  E   S  S S  S  E   E   T   T  T T Q
------------------------------------------|
------------------------------------------|
--9---L-14---11-14---L--12p-11p-9-L-L~----|
------------------------------------------|
------------------------------------------|
------------------------------------------|


      |-3-|  |-3-|  |-3-| |--3-| |--3-| |--3-|  |--3--|
  E   S S S  S S S  S S S S S  S S S  S S S  S  S  S  S
--------------------------------------------------------|
-----17-0-0-12-0-0-10-8-0-------------------------------|
----------------------------------------7-9-11-11-12-14-|
---------------------------------7-9-10-----------------|
--------------------------7-9-10------------------------|
--------------------------------------------------------|


   E  S  S S  S  E   Q     Q
---------------------------------|
---------------------------------|
--11--L-12-----------------------|
-------------12-14---L~----L\----|
---------------------------------|
---------------------------------|


                                             |---3--|   |---3--|  |---3---|
  E   T   T  T   T  T   T  T   T  T   T  T   T  S   S  S   S  S   S  S
-----15p-12-------------------------------------------------------------------|
------------15p-12--------15p-12----------------------------------------------|
------------------14p-12--------14p-12--------14p-12-------------14p-12h-14p--|
----------------------------------------14p-12-------14p-12-------------------|
------------------------------------------------------------14p-12------------|
------------------------------------------------------------------------------|


    E.    S S S  E  Q      E   E
----------------19--L~------------|
----------------------------------|
--\12~--------x-------------------|
---------14-L-x-------------------|
--------------x-------------------|
--------------------------17\--L--|


  E    E    S   S   E    S   S   E    S   S E
-------x----x---x---x----x---x---x----x---x----|
-----<>8--<>8-<>8-<>8--<>8-<>8-<>8--<>8-<>8----|
-------x----x---x---x----x---x---x----x---x----|
-------x----x---x---x----x---x---x----x---x----|
-----------------------------------------------|
-----------------------------------------------|


  T T T T T T T T T T T T  T  T  T  T  T  T  T  T  T  T  T  T  T  T  T  T  T
-----------------------------------------------------------------------------|
-----------------------------------------------------------------------------|
--9-9-9-9-9-9-9-9-9-9-9-9-11-11-11-11-11-11-11-11-11-11-11-11-11-11-11-11-11-|
--x-x-x-x-x-x-x-x-x-x-x-x--x--x--x--x--x--x--x--x--x--x--x--x--x--x--x--x--x-|
--7-7-7-7-7-7-7-7-7-7-7-7--9--9--9--9--9--9--9--9--9--9--9--9--9--9--9--9--9-|
-----------------------------------------------------------------------------|


   T  T  T  T  T  T  T  T  T  T  T  T  T  T  T  T  T  T  T  T  T  T  T  T  T
-----------------------------------------------------------------------------|
-----------------------------------------------------------------------------|
--12-12-12-12-12-12-12-12-12-12-12-12-14-14-14-14-14-14-14-14-14-14-14-14-14-|
---x--x--x--x--x--x--x--x--x--x--x--x--x--x--x--x--x--x--x--x--x--x--x--x--x-|
--10-10-10-10-10-10-10-10-10-10-10-10-12-12-12-12-12-12-12-12-12-12-12-12-12-|
-----------------------------------------------------------------------------|


   T  T  T  T  T  T  T  T  T  T  T  T  T  T  T  T  T  T  T  T  T  T  T  T  T
-----------------------------------------------------------------------------|
-----------------------------------------------------------------------------|
--16-16-16-16-16-16-16-16-16-16-16-16-19-19-19-19-19-19-19-19-19-19-19-19-19-|
---x--x--x--x--x--x--x--x--x--x--x--x--x--x--x--x--x--x--x--x--x--x--x--x--x-|
--14-14-14-14-14-14-14-14-14-14-14-14-17-17-17-17-17-17-17-17-17-17-17-17-17-|
-----------------------------------------------------------------------------|


  T  T  T  T  T  T  T  T  T  T  T  T  T  T  T  T  T  T  T  T  T  T  T T Q
------------------------------------------------------------------------------|
--22-22-------------------22-22-------------------22-22-----------------------|
--21-21-21-21-21-21-21-21-21-21-21-21-21-21-21-21-21-21-21-21-21-21-21-21-21\-|
---x--x--x--x--x--x--x--x--x--x--x--x--x--x--x--x--x--x--x--x--x--x--x--x--x--|
--19-19-19-19-19-19-19-19-19-19-19-19-19-19-19-19-19-19-19-19-19-19-19-19-19\-|
------------------------------------------------------------------------------|


   T  T  T  T  T  T  T  T  T  T  T  T  T  T  T  T  T  T  T  T  T  T  T  T  T
-----------------------------------------------------------------------------|
--15-15-15-15-15-15-15-15-15-15-15-15-17-17-17-17-17-17-17-17-17-17-17-17-17-|
---x--x--x--x--x--x--x--x--x--x--x--x--x--x--x--x--x--x--x--x--x--x--x--x--x-|
--12-12-12-12-12-12-12-12-12-12-12-12-14-14-14-14-14-14-14-14-14-14-14-14-14-|
-----------------------------------------------------------------------------|
-----------------------------------------------------------------------------|


  T  T  T  T  T  T  T  T  T  T  T  T  T  T  T  T  T  T  T  T  T  T  T T Q
------------------------------------------------------------------------------|
--17-17-17-17-17-17-17-17-17-17-17-17-17-17-17-17-17-17-17-17-17-17-17-17-17\-|
---x--x--x--x--x--x--x--x--x--x--x--x--x--x--x--x--x--x--x--x--x--x--x--x--x--|
--14-14-14-14-14-14-14-14-14-14-14-14-14-14-14-14-14-14-14-14-14-14-14-14-14\-|
------------------------------------------------------------------------------|
------------------------------------------------------------------------------|


                             |---3--|   |---3--| |---3--|   |---3--| |---3-
  T   T  T   T  T   T  T   T  S   S  S   S  S   S  S   S  S   S  S   S  S
--15p-12---------------------------------------------------------------------|
---------15p-12--------15p-12------------------------------------------------|
----------------14p-12--------14p-12------14p-12-----------------------------|
------------------------------------14p-12------14p-12--------14p-12h-14p-12-|
--------------------------------------------------------14p-12---------------|
-----------------------------------------------------------------------------|


  |--3-|  |--3--| |--3-|  |--3--| |--3-|  |--3--|
  S  S S  S  S  S S  S S  S  S  S S  S S  S  S  S E   E
----------------------------------------------------------|
----------------------------------------------------------|
--9p-7------------9p-7------------9p-7------------9~--L\--|
-------9p-7------------9p-7------------9p-7---------------|
------------10p-7-----------10p-7-----------10p-7---------|
----------------------------------------------------------|


   |--3--|   |---3--|  |--3--|   |---3--|  |--3--|   |---3--|
   S  S  S   S  S   S  S  S  S   S  S   S  S  S  S   S  S   S  E   E
--19-19-17p-15--------19-19-17p-15--------19-19-17p-15--------19---L\--|
---------------17p-15--------------17p-15--------------17p-15----------|
-----------------------------------------------------------------------|
-----------------------------------------------------------------------|
-----------------------------------------------------------------------|
-----------------------------------------------------------------------|


  E      T  T  T T S     T  T  T T S     T  T  T T E  S S  S S
-----17g19-17--L-----15g17-15--L-----14g15-14--L---------------|
------------------------------------------------------7-8-10-8-|
---------------------------------------------------------------|
---------------------------------------------------------------|
---------------------------------------------------------------|
---------------------------------------------------------------|


 E   S S S S E  Q     S T  T   T T  T   T    E  T T  S E  E  E  S T T Q
----------------------------------7h-8h-10-|--L--L-8p-7-L-------------------|
--7~--L------------------7h-8h-10----------|---------------8--10--L-8p-7----|
--------9---7-9--L~------------------------|-----------------------------9~-|
-------------------------------------------|--------------------------------|
-------------------------------------------|--------------------------------|
-------------------------------------------|--------------------------------|


   E    S  S E   E   Q     Q
--19~---L-17-L--15~--L-----------|
--------------------------19~----|
---------------------------------|
---------------------------------|
---------------------------------|
---------------------------------|


  E      E    S  S  E   T   T   T T E   E   E
-----15g17~---L-15--L--------------------------|
-----------------------19h-20p-19-L-L--17--15--|
-----------------------------------------------|
-----------------------------------------------|
-----------------------------------------------|
-----------------------------------------------|


      Q.       Q.       T  E  S.
---------------------------------|
--15g17~------19~------19-20-----|
---------------------------------|
---------------------------------|
---------------------------------|
---------------------------------|


         |---3--|  |---3--|   |---3--|  |---3--|  |---3--|  |---3--| |---3--|
  S.  T   S  S   S  S   S  S   S  S   S  S   S  S   S  S   S  S   S  S S
-----15p-12-------------------------------------------------------------------|
------------15p-12--------15p-12-15p-12---------------------------------------|
-------------------14p-12---------------14p-12------14p-12--------------------|
----------------------------------------------14p-12-------14p-12------14p-12-|
------------------------------------------------------------------14p-12------|
------------------------------------------------------------------------------|


     SH        SH      SH          SH
     E    S    S E     E   Q       Q
--<>19~---L-<>17-L--<>15~--L-------------|
--------------------------------<>19~----|
-----------------------------------------|
-----------------------------------------|
-----------------------------------------|
-----------------------------------------|


        SH        SH                       SH    SH
  E     E    S    S  E   T   T   T T E     E     E
-----<>17~---L-<>15--L------------------------------|
------------------------19h-20p-19-L-L--<>17--<>15--|
----------------------------------------------------|
----------------------------------------------------|
----------------------------------------------------|
----------------------------------------------------|


     SH         PH
     Q.         H         E     W
-------------<>19~-----------|-------------------|
--<>17~----------------------|-------------------|
-----------------------------|-------------------|
-----------------------------|-------------------|
-----------------------------|-------------------|
-----------------------------|-------------------|


   E    S  S E   E   Q     Q
--19~---L-17-L--15~--L-----------|
--------------------------19~----|
---------------------------------|
---------------------------------|
---------------------------------|
---------------------------------|


  E      E    S  S  E   T   T   T T E   E   E         Q.       H         E
-----15g17~---L-15--L--------------------------|----------------------------|
-----------------------19h-20p-19-L-L--17--15--|--15g17~------19~--------L--|
-----------------------------------------------|----------------------------|
-----------------------------------------------|----------------------------|
-----------------------------------------------|----------------------------|
-----------------------------------------------|----------------------------|


-----||
-----||
-----||
-----||
-----||
-----||


Duration Legend
---------------
W - whole
H - half
Q - quarter
E - 8th
S - 16th
T - 32nd
X - 64th
. - note dotted
|-n-|  - n-tuplets


Tablature Legend
----------------
L - tied note
x - dead note
g - grace note
(n) - ghost note
> - accentuded note
NH - natural harmonic
AH - artificial harmonic
TH - tapped harmonic
SH - semi harmonic
PH - pitch harmonic
h - hammer on
p - pull off
b - bend
br - bendRelease
pb - preBend
pbr - preBendRelease
brb - bendReleaseBend
\n/ - tremolo bar dip
\n - tremolo bar dive
-/n - tremolo bar Release up
/n\ - tremolo bar inverted dip
/n - tremolo bar return
-\n - tremolo bar Release down
S - shift slide
s - legato slide
/ -  slide into from below or out of upwards
\ -  slide into from above or out of downwards
~ - vibrato
W - wide vibrato
tr - trill
TP - tremolo picking
T - tapping
S - slap
P - pop
< - fade in
^ - brush up
v - brush down





Comments


Popular Eric Mantel tabs & chords
Affectionately Yours Tabs
There Are No Words Tabs
Tribute Tabs
Wings Of Fire Tabs


Song lyrics



↑ Back to top | Tablatures and chords are parodies/interpretations of the original songs. You may use it for private study, scholarship, research or language learning purposes only
© 2014 AZChords.com Contact us | Privacy policy | DMCA | Add/correct tabs | Request tabs | Top 50 tabs