» » »

Eric Clapton, Wonderful Tonight Tabs (ver.8)

Artists:  A B C D E F G H I J K L M N O P Q R S T U V W X Y Z # 

Wonderful Tonight Tabs (ver.8)

Eric Clapton Tabs
 Rating:
4/5 (4 votes)
Wonderful Tonight  lessons Tabs too difficult? Try these video lessons and learn fast
                (7)
Well i was looking through the tabs and i noticed that no one has put a finger 
picking version of the song
and that's usually what Eric Clapton plays during his concerts so here it is...

Intro 
e|-------------|--------------|--------------|
B|-------------|--------------|--------------|
G|----14b-12-14|----14b-12----|----14b-12-14-|
D|-12----------|-12--------14-|-12-----------|
A|-------------|--------------|--------------|
E|-------------|--------------|--------------|

e|-------------|--------------|-----------------------------11/12-12/10-|
B|-------------|--------------|-----------------11/12-12/13-------------|
G|----14b-12-14|----14b-12----|----14b-12-13/14-------------------------|
D|-12----------|-12--------14-|-12--------------------------------------|
A|-------------|--------------|-----------------------------------------|
E|-------------|--------------|-----------------------------------------|

Riff
e|-------------|--------------|--------------------12-------------------|
B|-------------|--------------|--------------12-13----15----------------|
G|----14b-12-14|----14b-12----|----14b-12-14----------------------------|
D|-12----------|-12--------14-|-12--------------------------------------|
A|-------------|--------------|-----------------------------------------|
E|-------------|--------------|-----------------------------------------|


Chords are G, D/F#, C, D, and Em and here are the strumming patterns for 
each individual chord and as you can see the finger picking is exactly the same for each one

G                   D/F#              C                 D
e|--------3--------|--------2--------|--------0--------|---------2-------|
B|----3-------3----|----3-------3----|----1-------1----|-----3-------3---|
G|--0---0---0---0--|--2---2---2---2--|--0---0---0---0--|---2---2---2---2-|
D|-----------------|-----------------|-----------------|-0---------------|
A|-----------------|-----------------|-3---------------|-----------------|
E|-3---------------|-2---------------|-----------------|-----------------|
Em
e|--------0--------|
B|----0-------0----|
G|--0---0---0---0--|
D|-----------------|
A|-----------------|
E|-0---------------|

Solo
e|-----------------12/13-12-|----17b-15-15-|----17b-15-14-12-------------11/12|
B|------------12-14---------|-15-----------|-15--------------15-12-15-15------|
G|------12-14---------------|--------------|----------------------------------|
D|12-14---------------------|--------------|----------------------------------|
A|--------------------------|--------------|----------------------------------|
E|--------------------------|--------------|----------------------------------|

e|------------------------------------|----------------------------11/12-12\10|
B|-15h18b-15-14-12h14-----------------|----------------11/12-12/13------------|
G|--------------------14-12----12-12--|----------13/14------------------------|
D|--------------------------14--------|-12h14/15------------------------------|
A|------------------------------------|---------------------------------------|
E|------------------------------------|---------------------------------------|



Now lets put it all together
INTRO.......................
G                D/F#
 its late in the evening
C                       D
 shes wondering what clothes to wear
G                 D/F#
 she puts on her make-up 
C                 D
 and brushes her long blond hair
C             D
 and then she asks me
G          Em    <<< for this G only hit the first 4 notes
 do i look alright
            C             D        G   
            
Submit corrections

comments powered by Disqus
↑ Back to top | Eric Clapton Tabs for Wonderful Tonight. Lyrics for acoustic guitar and electric guitar. Tablatures and chords are parodies/interpretations of the original songs. You may use it for private study, scholarship, research or language learning purposes only