» » »

Eric Clapton, Wonderful Tonight Bass tabs (ver.3)

Artists:  A B C D E F G H I J K L M N O P Q R S T U V W X Y Z # 

Wonderful Tonight Bass tabs (ver.3)

Eric Clapton Tabs
 Rating:
4/5 (4 votes)
Wonderful Tonight lessons Tabs too difficult? Try these video lessons and learn fast
                ----------------------------------------------------------------------------
			     Wonderful tonight - Eric clapton
----------------------------------------------------------------------------


Tuning:
Intro
G|--------------------------------------------------------------------------|
D|--5--54-----------0-2-4-7-5--------5--54----------0-2-4-7-5---------------|
A|----------23-------------------------------23-----------------------------|
E|--------------------------------------------------------------------------|

Verse 1
G|--------------------------------------------------------------------------|
D|--5--54--------0------5--54----------0-----------0----5-4-2------------0--|
A|---------23-------------------23-----------2-3--------------------23------|
E|--------------------------------------------------------------------------|

Then play intro once and then in to this

Verse 2
G|--------------------------------------------------------------------------|
D|--5--54--------0------5--54----------0-----------0----5-4-2----------0--5-|
A|---------23-------------------23-----------2-3------------------23--------|
E|--------------------------------------------------------------------------|

Then hold into the chorus

Chorus
G|--------------------------------------------------------------------------|
D|----------0----5-4-2----------0----------0--------------------------------|
A|--23---------------------23---------23------------------------------------|
E|--------------------------------------------------------------------------|

Then play the intro once agen then:

Verse 3
G|--------------------------------------------------------------------------|
D|--5--54--------0------5--54----------0-----------0----5-4-2-------5-4-2-0-|
A|---------23-------------------23-----------2-3----------------23----------|
E|--------------------------------------------------------------------------|

G|--------------------------------------------------------------------------|
D|------o-------------------------------------------------------------------|
A|--23----------------------------------------------------------------------|
E|--------------------------------------------------------------------------|

Then 2 finish off play the intro part twice

| /  slide up
| \  slide down
| h  hammer-on
| p  pull-off
| ~  vibrato
| +  harmonic
| x  Mute note
===============================================================================
            
Submit corrections

comments powered by Disqus
↑ Back to top | Eric Clapton Bass for Wonderful Tonight. Lyrics for acoustic guitar and electric guitar. Tablatures and chords are parodies/interpretations of the original songs. You may use it for private study, scholarship, research or language learning purposes only