» » »

Eric Clapton, Wonderfull Tonight Bass tabs (ver.1)

Artists:  A B C D E F G H I J K L M N O P Q R S T U V W X Y Z # 

Wonderfull Tonight Bass tabs (ver.1)

Eric Clapton Tabs
 Rating:
4/5 (4 votes)
Wonderfull Tonight lessons Tabs too difficult? Try these video lessons and learn fast
                [INTRO]
  G        D/F#     C        D        G        D/F#     C        D
G:--------|--------|--------|------2-|--------|--------|--------|------2-|
D:5------5|4-------|------2-|--2-4---|5-----5-|4-------|------2-|--2-4---|
A:--------|------5-|3------3|5-------|--------|-------5|3-------|5-------|
E:--------|--------|--------|--------|--------|--------|--------|--------|

[VERSE]
  G                  D/F#            C                      D
    It's late in the evening           She's wondering what clothes to wear
  G                 D/F#             C                 D
    She puts on her make up            And brushes her long blonde hair
  C              D                   G      D/F#   Em
    And then she asks me               Do I look alright?
              C             D           G        D/F#      C      D
    And I say yes, you look wonderful tonight

  G        D/F#     C        D        G        D/F#     C        D
G:--------|--------|--------|--------|--------|--------|--------|--------|
D:5-----5-|4-------|------2-|-----24-|5-----5-|4-------|------2-|--------|
A:--------|------5-|3------3|5-------|--------|------5-|3------3|5----5-2|
E:--------|--------|--------|--------|--------|--------|--------|------5-|

  C        D        G   D/F# Em       C        D        
G:--------|--------|--------|--------|--------|--------|
D:------2-|-----24-|5---4--2|2-------|------2-|------24|
A:3------3|5-------|--------|------52|3------3|5-------|
E:--------|--------|--------|--------|--------|--------|

[INSTRUMENTAL]
  G        D/F#     C        D        
G:--------|--------|--------|------2-|
D:5------2|4-------|------2-|--2-4---|
A:--------|------5-|3------3|5-------|
E:--------|--------|--------|--------|

[VERSE]
  G         D/F#                      C              D
    We go a party                       And everyone turns to see
  G                D/F#               C                 D
    This beautiful lady                 That's walking around with me
  C              D                    G        D/F#   Em
    And then she asks me                Do you feel alright?
            C           D           G        G
  And I say yes, I feel wonderful tonight

  G        D/F#     C        D        G        D/F#     C        D
G:--------|--------|--------|--------|--------|--------|--------|--------|
D:5-----5-|4-------|------2-|-----24-|5-----5-|4-------|------2-|--------|
A:--------|------5-|3------3|5-------|--------|------5-|3------3|5----5-2|
E:--------|--------|--------|--------|--------|--------|--------|------5-|

  C        D        G   D/F# Em       C        D        G        G
G:--------|--------|--------|--------|--------|--------|--------|--------|
D:------2-|-----24-|5---4--0|2-------|------2-|------24|5----52-|--------|
A:3------3|5-------|--------|------52|3------3|5-------|-------5|------2-|
E:--------|--------|--------|--------|--------|--------|--------|3----5--|

[BRIDGE]
         C               D               G          D/F#    Em
  I feel wonderful     Because I see the love light in your eyes
          C            D                   C              D
  And the wonder of it all     Is that you just don't realize
             G          D/F#     C    D          G     D/F#    C     D
  How much I love you

  C        D        G   D/F# Em       C        D        C        D
G:--------|--------|--------|--------|--------|--------|--------|--------|
D:--------|-------4|5---4--2|2-------|--------|--------|------2-|--------|
A:3------3|5-------|--------|------52|3------3|5-----02|3-------|5-------|
E:--------|--------|--------|--------|--------|--------|--------|--------|

  G        D/F#     C        D        G        D/F#     C        D
G:--------|--------|--------|------2-|--------|--------|--------|------2-|
D:5------5|4-------|------2-|--2-4---|5------5|4-------|------2-|--2-4---|
A:--------|------5-|3-------|5-------|--------|------5-|3------3|5-------|
E:--------|--------|--------|--------|--------|--------|--------|--------|

[VERSE]
  G                 D/F#              C                        D
    It's time to go home now            And I've got an aching head
  G                   D/F#            C                 D
    So I give her the car keys          She helps me to bed
  C            D                      G      D/F#         Em
    And then I tell her                 As I turn out the light
           C                   D           G       D/F#    Em    Em/D
  I say my darling    You were wonderful tonight

  G        D/F#     C        D        G        D/F#     C        D
G:--------|--------|--------|--------|--------|--------|--------|--------|
D:5-----5-|4-----0-|------2-|-----24-|5-----5-|4-----0-|------2-|--------|
A:--------|--------|3-------|5-------|--------|--------|3------3|5----5-2|
E:--------|--------|--------|--------|--------|--------|--------|------5-|

  C        D        G   D/F# Em       C        D        G   D/F# Em  Em/D
G:--------|--------|--------|--------|--------|--------|--------|--------|
D:------2-|------24|5---4--2|2-------|------2-|-----24-|5---4---|2-------|
A:3------3|5-------|--------|------52|3----3-3|5-------|--------|----5---|
E:--------|--------|--------|--------|--------|--------|--------|--------|

[CODA]
        C                 D           G      D/F#    C    D 
  Oh my darling, you were wonderful tonight

                       (Rit...)
  G     D/F#     C      D      G

  C        D        G        D/F#     C        D
G:--------|--------|--------|--------|--------|------2-|
D:------2-|------4-|5------5|4-------|------2-|--2-4---|
A:3-------|5----5--|--------|-------5|3-------|5-------|
E:--------|--------|--------|--------|--------|--------|

                            (Rit...)
  G        D/F#     C        D        G
G:--------|--------|--------|------2-|--------|--------|
D:5-----5-|4-----0-|------2-|--2-4---|5~~~~~~~~~~~~~~~~|
A:--------|--------|3----5--|5-------|--------|--------|
E:--------|--------|--------|--------|--------|--------|


March 18, 2013
            
Submit corrections

comments powered by Disqus
↑ Back to top | Eric Clapton Bass for Wonderfull Tonight. Lyrics for acoustic guitar and electric guitar. Tablatures and chords are parodies/interpretations of the original songs. You may use it for private study, scholarship, research or language learning purposes only