>
 >
White Room

White Room Bass Tabs

Eric Clapton - White Room chords, tabs, tablatures, lyrics

Guitar lessons | Add/correct | Request | Top 50 tabs Artists:  A B C D E F G H I J K L M N O P Q R S T U V W X Y Z 0-9

White Room Bass Tabs – Eric Clapton

CD, Sheet music, Poster

Do you like White Room? Share with your friends now
Bass TabsChordsChords v2TabsUkulele
---------------------------------------
 Eric Clapton - White Room - 24 Nights 
---------------------------------------

-INTRO-(5/4 time,Play twice)
G|--------------------------|--------------------------|
D|(5)-(5)(5)(5)(5)-(5)(5)(5)|(3)-(3)(3)(3)(3)-(3)(3)(3)|
A|--------------------------|--------------------------|
E|-3------------------------|-1------------------------|

G|-------------|-------------|
D|-------------|-------------|
A|5-555-5-55-5-|3-333-3-33-3-|
E|-------------|-------------|

(4/4) -VERSE 1-
G|----|--------|--------|-----------|--------|--------|-------|
D|----|0-0-----|--------|000--------|----3---|0-0-----|-------|
A|0---|---02-3-|20-0-1-3|---02333320|---1--3-|---33-20|---1-3-|
E|----|--------|--3-----|-----------|33------|--------|33-----|

G|----------|-------|------|-------|-------|000----|--------|
D|0-0-0-----|-------|0-00--|-------|0-0---0|---0---|0-0---0-|
A|-0---0----|---1-3-|----33|---1-3-|----33-|----1-0|---33---|
E|-------130|33-----|------|33-----|-------|-------|--------|

G|----------|-------------14-|-------------|
D|----6-8-10|----------------|12-12-9------|
A|----------|-----------15---|-------12----|
E|3-35------|10-10-10-13-----|---------6666|
-BRIDGE-
G|---910-109-|7------------|--77---|14--12h14-|----9910109|
D|-----------|-9-9---------|-------|----------|-----------|
A|-----------|----10-10----|-------|----------|--10-------|
E|8(hold----)|----------10\|6(hold)|----------|8(hold----)|

G|--------|-----------------------|------------|
D|----0-0-|-----------------------|------------|
A|-------3|1-1-1-1-1-1-1-1-1-1-1-2|333-33-00-0-|
E|3--3----|-----------------------|------------|

G|------------------|-----------|
D|------------------|-----------|
A|5-553-33-2-22-0-00|---------5-|
E|------------------|3-33-2-2---|
-VERSE 2-
G|----------|-------|----------|--------|--2p0---------|----------|
D|0----0--0-|-------|00-20-----|--------|00---40-------|----------|
A|------3---|---1-0-|-----33-33|22--1-3-|-------33-3(3)|2-0---1-3-|
E|--1h2-----|3------|----------|--------|--------------|----3-----|

G|-------------|--------|-----|--------|-12-1211---|-7-79-----|
D|02h42h42p0---|-----0--|0-0--|-0------|-----------|----------|
A|----------3-3|20-01-0-|---1-|---31-0-|-----------|----------|
E|-------------|--3-----|-----|3-------|10(hold)8-8|7(hold)6-8|

G|--------55---|-----------|-----------|--------|
D|------79---97|5----------|0-0-0-02-2-|--------|
A|55-7h9-------|-53-2--1-0-|-----------|---0-1-1|
E|-------------|-----3-----|-----------|113-----|
-BRIDGE-
G|------|-------|-------3|2---66-|----7h9-11-11-11-9|5h7--99----|
D|---00-|-------|---0-0--|------7|------------------|-------55--|
A|3-3--3|2-----0|1-3-----|-00----|--10--------------|---------5\|
E|------|--33---|--------|-------|8-----------------|-----------|

G|------------------|-----------------|-----777----|
D|------------------|-----------------|-7-79---97--|
A|1-1-1111-1111-1111|3-3-3-3-0000-0-00|5---------5/|
E|------------------|-------4---------|------------|
-MIDDLE-(5/4)
G|------|------|------|----3h5-3|--------------|------------|
D|5-(5)-|3-(3)-|0-(0)-|---3-----|3h5-555-5-55-5|3-333-3-33-3|
A|------|------|------|3-5------|--------------|------------|
E|------|------|------|---------|--------------|------------|
                     (4/4)
G|------------|------|----|
D|------------|------|----|
A|5-555-5-55-5|3-(3)-|0---|
E|------------|------|----|
-VERSE 3-
G|----------|-----------|-------------|577h9-10-975-----|------------|
D|0-0-------|-----------|----4-4h57-79|------------753--|------------|
A|----------|---01-3-5h7|5-7----------|---------------53|5-55-3-3-320|
E|---0000-22|33---------|-------------|-----------------|------------|

G|--------|-------10--------10-|12h14-10-------------|---------|
D|--------|-----10--------10---|--------12-----------|---------|
A|--------|10h12-----10h12-----|----------11p10-8-5--|5-5-5----|
E|33-36-8-|--------------------|-------------------5\|-----00-2|

G|--------|-----17h19-17-------------|------------------------|
D|--------|-------------1917-15-18p17|1512---1512-------------|
A|--------|--------------------------|----15-----15-1110------|
E|33-56-8-|10-10---------------------|------------------13-10\|

G|---------|--------|--12-11----10-10--|--9-7-------|
D|0-0------|--------|------------------|------------|
A|---------|-----5--|------------------|------------|
E|---01-1-2|3-5-6-8-|10-----10-8(hold)8|7(hold)7-6-6|
-BRIDGE-
G|---5-5-4-42|---------|---2-0-4--|--------|--------------|--9-97----|
D|--5--------|5-22-0-0-|----------|--------|------(5)-----|----------|
A|3----------|--------3|1---------|5-35-5-\|3-33-3--------|-------(0)|
E|-----------|---------|----------|--------|-------00-1-12|3---------|

G|---------------------|---------------|----5h75----|
D|------------------0--|---------------|--77----7-7-|
A|1-1-1-1-1-1-1-1-3---1|3-3-321-0-0-3-7|5--------5-5|
E|---------------------|---------------|------------|
-PLAY OUT-(5/4)
G|------|------|---------|---------|------------|------------|
D|5-(5)-|3-(3)-|---------|---------|------------|------------|
A|------|------|5--5-55-5|3--3-----|------------|------------|
E|------|------|---------|----0-1-2|3-333-3-33-3|1-111-1-11-1|
              ||Play twice-----
G|------------||---------|---------|------------|-----------|
D|5-555-5-55-5||---------|00-2-0---|------------|0/12~~-----|
A|------------||20---1-0-|------3-3|20--1-(1)0-0|------33-20|
E|------------||---3-----|---------|--33-3------|-----------|
 
G|-----------|----------|--------|--------|--------|--------|
D|-----------|0-0-------|--------|--------|--------|--------|
A|-------1-0-|-0---32-0-|20--1-0-|5555----|--------|5555----|
E|33-(3)1----|----------|--3-----|----0000|33331100|----0000|
                                         -----||
G|--------|-------5|-------|---------|----7-9/||
D|--------|--------|-------|00-12~---|--------||
A|----1-3-|55-533--|---1-3-|------33-|33-6-8/-||
E|3333----|--------|33-----|---------|--------||

G|/11-11---9---9|77---7/9--|11--11\-9---|--------|--------|
D|--------------|----------|------------|--------|0000----|
A|--------------|----------|------------|--------|--------|
E|/10---10-8-8--|7--76/8-8/|10-10--8-8-8|777-6650|----1111|

G|--------|-------------|-----------|----------10-------------|
D|--------|0-7/12~~-----|-----------|-----10h12--12--10-------|
A|----1100|--------33-20|----1-----8|10h12-------------12108--|
E|3333----|-------------|33-3--5810-|-----------------------10|

G|------------|----------|-----------|----|
D|------3---5-|0/12~~----|-----------|----|
A|---0-1-1-3-3|------33--|22--111-303|5---|
E|773---------|----------|-----------|----|





Comments


Popular Eric Clapton tabs & chords
Layla 2 Bass Tabs
Dont Think Twice Its Alright Chords
For Your Love Chords
San Fransico Bay Chords
Eyesight To The Blind Tabs
Give Me Strength Tabs
Hey Hey 1 Tabs
You Know Its True Intro Tabs
Bottle Of Red Wine Ukulele
To Make Somebody Happy Ukulele


Song lyrics



↑ Back to top | Tablatures and chords are parodies/interpretations of the original songs. You may use it for private study, scholarship, research or language learning purposes only
© 2014 AZChords.com Contact us | Privacy policy | DMCA | Add/correct tabs | Request tabs | Top 50 tabs