» » »

Sweet Home Chicago Bass tabs (ver.1)

Artists:  A B C D E F G H I J K L M N O P Q R S T U V W X Y Z # 

Sweet Home Chicago Bass tabs (ver.1)

Eric Clapton
Rating:
0/5 (0 votes)

Hard to play? Try these video lessons and learn fast.
                G|-----------------------------------------------|  
D|-----------------------------------2-----------|
A|-----------2--x3-5-4-2-4---0--3h4----x2-------2|
E|--0---3h4-------------------------------0-3h4--|
                                                        X5  
G|-----------------------------------------------|      
D|-----------4----------2------------------------|
A|-2---5h6-------0--2-3--------------------------|
E|-----------------------------------------------|

G|-----------------------------------------------|
D|----------4----------2-------------------------|     X2
A|-2-5h6--------0--3h4----------2---------2------|
E|------------------------0-3h4-----0-3h4--------|

G|-----------------------------------------------|
D|----------4----------2-------------------------|
A|-2-5h6--------0--3h4-----7-7-5-5---------------|
E|---------------------------------7-7-6-6-5--3-0|


END

Sorry if this sucks, think its right :D
            
Hard to play? Try these video lessons and learn fast. | Correct




comments powered by Disqus
↑ Back to top | Tablatures and chords are parodies/interpretations of the original songs. You may use it for private study, scholarship, research or language learning purposes only