>
 >
Somewhere Over The Rainbow

Somewhere Over The Rainbow Guitar Tabs

Eric Clapton - Somewhere Over The Rainbow chords, tabs, tablatures, lyrics

Guitar lessons | Add/correct | Request | Top 50 tabs Artists:  A B C D E F G H I J K L M N O P Q R S T U V W X Y Z 0-9

Somewhere Over The Rainbow Guitar Tabs – Eric Clapton

CD, Sheet music, Poster

Do you like Somewhere Over The Rainbow? Share with your friends now
ChordsTabsUkulele
Eric Clapton - Somewhere Over The Rainbow

(Intro)

E----0---2-2-0----------------------------0-2-2-0----*
B----0---2-2-0----------------------------0-2-2-0----*
G----1---2-2-1----------------------------1-2-2-1----*
D----2---2-2-2----------2------2------2---2-2-2-2----*
A----2-------2---2-2-\4---2-\4---2-\4-----2-----2----*
E--0---------0--------------------------0-------0----*

E-------------------------------------2-2-0----------*
B-------------------------------------2-2-0----------*
G----------------4-4-6----------------2-2-1----------*
D---------2-4-\6-------6-h4-\2---2----2-2-2----------*
A--2-2-h4----------------------4----------2----------*
E----------------------------------0------0----------*

E--------------0--2-2---0---4--2-2-------------------*
B--\3-3-2-0-h1-0--2-2---0-4-4--2-2--2-2--------------*
G--\4-4-2------1--2-2---1-4-4--2-2--2-2--------------*
D--------------2--2-2---2-4-4--2-2--2-2---------2----*
A-----------------------2-4-4--4-4--2-2--2-2-p4------*
E---------------------0---4-4--2-2--2-2-----------0--*

E--0---4--2-2-----------0----------------------------*
B--0-4-4--2-2--2-2------0----------------------------*
G--1-4-4--2-2--2-2------1----------------------------*
D--2-4-4--2-2--2-2--0---2----------------------------*
A--2-4-4--4-4--2-2------2----------------------------*
E----4-4--2-2--2-2----0------------------------------*

(End of Intro)


E----0----4-----4----4--3-----2-------0--4--3--2-----*
B----0----5-----4----4--3-----2--\4---0--4--3--2-----*
G----1----4-----4----4--3-----2--\4---1--4--3--2-----*
D----2----6-----4----4--3-----2--\4---2--4--3--2-----*
A----2-4--4-----6----6--5-----4-------2--4--5--4-----*
E--0------4-----4--4-4--3--2--2-----0----4--3--2-----*

   Some - where over the rainbow;              
   Some - where over the rainbow;


E------------0-------4--3--2----------0--------------*
B--\4--------0-------4--3--2-------4--0--------------*
G--\4--------1-------4--3--2-------4--1--------------*
D--\4--------2-------4--3--2-------4--2--------------*
A------------2-------4--5--4----------2--------------*
E------------0-------4--3--2----------0--------------*

   way up    high.         There's a  place that I
   skies are blue.         And the dreams that you


E--4--------2--------\4-----0------------------------*
B--4--------2--------\4-----0------------------------*
G--4--------2--------\4-----1------------------------*
D--4--------2--------\4-----2------------------------*
A--4--------4---------------2------------------------*
E--4--------2---------------0------------------------*
 
   heard of once in a lullaby.
   dared to dream, really do  come true.


E--0-------------------------------------6------------*
B--0-------------------------------------8------------*
G--1-------------------------------------6------------*
D--2-------------------------------------8------------*
A--2-------------------------------------6------------*
E--0-------------------------------------6------------*

   Someday I'll wish upon a star and     wake up where
   Where troubles melt like lemon drops, high above

			
E---------------------------2------------------------*
B---------------------------4------------------------*
G---------------------------2------------------------*
D---------------------------4------------------------*
A---------------------------2------------------------*
E---------------------------2------------------------*

   the clouds are far       behind me ...
   the chimney tops; that's where you'll find me.


E----0----4-----4----4--3-----2-------0--4--3--2-----*
B----0----5-----4----4--3-----2--\4---0--4--3--2-----*
G----1----4-----4----4--3-----2--\4---1--4--3--2-----*
D----2----6-----4----4--3-----2--\4---2--4--3--2-----*
A----2-4--4-----6----6--5-----4-------2--4--5--4-----*
E--0------4-----4--4-4--3--2--2-----0----4--3--2-----*

   Some - where over the rainbow;              


E------------0-------4--3--2----------0--------------*
B--\4--------0-------4--3--2-------4--0--------------*
G--\4--------1-------4--3--2-------4--1--------------*
D--\4--------2-------4--3--2-------4--2--------------*
A------------2-------4--5--4----------2--------------*
E------------0-------4--3--2----------0--------------*

   bluebirds fly.          Birds fly over the rainbow,
					 

E--4--------2--------\4-----0------------------------*
B--4--------2--------\4-----0------------------------*
G--4--------2--------\4-----1------------------------*
D--4--------2--------\4-----2------------------------*
A--4--------4---------------2------------------------*
E--4--------2---------------0------------------------*

   why, oh  why,            can't I.   

   (Repeat "Birds fly ..." one time.)



E--0-------------------------------------------------*
B--0-------------------------------------------------*
G--1-----------------------------2-------------------*
D--2-----------------------------2-------------------*
A--2-----------------------------4-------------------*
E--0-----------------------------2-------------------*

   If happy little bluebirds fly above the rainbow,

		      ********************************
E---------------------0----4--2-2--------------------*
B--2------------------0--4-4--2-2--2-2---------------*
G--2-------2----------1--4-4--2-2--2-2---------------*
D--2-------2----------2--4-4--2-2--2-2------------2--*
A--4-------2----------2--4-4--4-4--2-2--2--2--\4-----*
E--2-------2----------0--4-4--2-2--2-2---------------*
		      ** Repeat about 4 times ********

   why, oh why, can't I.  

E--0--0-----------------------------------------------*
B--1--0-----------------------------------------------*
G--2--1-----------------------------------------------*
D--3--2-----------------------------------------------*
A--3--2-----------------------------------------------*
E-----0-----------------------------------------------*

(End)

Enjoy!





Comments


Popular Eric Clapton tabs & chords
Mustang Sally Bass Tabs
Running On Faith Bass Tabs
Nobody Knows You When Youre Down And Out 1 Chords
I Can't Hold Out Tabs
Lonely Stranger 3 Tabs
Singe Intro Tabs
Tears In Heaven 4 Tabs
Anyone For Tennis Ukulele
Someone Like You Ukulele
Why Does Love Got To Be So Sad Ukulele


Song lyrics



↑ Back to top | Tablatures and chords are parodies/interpretations of the original songs. You may use it for private study, scholarship, research or language learning purposes only
© 2014 AZChords.com Contact us | Privacy policy | DMCA | Add/correct tabs | Request tabs | Top 50 tabs