» » »

San Francisco Bay Blues Bass tabs (ver.1)

Artists:  A B C D E F G H I J K L M N O P Q R S T U V W X Y Z # 

San Francisco Bay Blues Bass tabs (ver.1)

Eric Clapton
Rating:
0/5 (0 votes)

Hard to play? Try these video lessons and learn fast.
                +++++++++++++++++++++++++++++++++++++++++
| Eric Clapton- San Francisco Bay Blues |
+++++++++++++++++++++++++++++++++++++++++



"Walking with my baby down by the San Francisco bay..."


This is the MTV Unplugged Version


Tuning: EADG



Intro
1.
G|------------------------------------------------------------------24-|
D|------------------------------023---3-20----------7--47---7-5---55---|
A|------------------------3---3-----3-----3-210-7-5---5---5-----5------|
E|--------------------------3------------------------------------------|

Verse
"I got the blues from my baby..."
2.
G|---------------------------------------------------------------------|
D|---02320---25---023--2320---25---023--2320-----------7---74-5---5----|
A|-3-------3----3-----3-----3----33----3----43-210-345---5------5---02-|
E|-----------------------------------------------------------------3---|

"I aint got a nickel..."
3.
G|---------------------------4----------------------------------------|
D|-----3-2---3---023--23-302---20-23---320-----------745-----33-------|
A|-3-3-----3---33----3-----------3---3----43-210-705------23----3--02-|
E|-------------------------------------------------------3--------3---|

Harmonica Solo
4.
G|------------5----------------------------------------------------------|
D|-----3-25--5-5--023--23-20--5---023--23-20----------7---4-5-79-02-5320-|
A|-3-3-----3----33----3-----3---3-----3-----3-210-7-5---5----------------|
E|-----------------------------------------------------------------------|

Kazoos Solo
5.
G|-----------------------------------------------------------------------|
D|-----3-2---25---023---3-553-2---2--23---3320-------------5-5---25------|
A|-3-3-----3----3-----3---------2---2---3-----3-210-3345-5-----3------02-|
E|------------------------------------------------------------------33---|

Verse
"Sitting down looking from my back door..."
6.
G|------------------------------------------------------------------------|
D|---3---25---3---023---3---3-20--023---3-20-----------7---7-5----23-5320-|
A|-3---3----3---3-----3---3-----33----3------3-210-345---5-----35---------|
E|------------------------------------------------------------------------|

"Meanwhile in another city..."
7.
G|-----------------------------4-------5--------------|
D|---3-------3---023---3-353-2---2-023---3-20---------|
A|-3---3-023---33----3------------2----------3-210-34-|
E|------3---------------------------------------------|

Outro
"Walking with my baby..."
8.
G|--------------------------------------------------------------|
D|-----5-5-------------5-5-------------5-7----23-23-------------|
A|-5-5-----3-210-4-5-5-----3-210-765-5----5-3-------3---3x------|
E|----------------------------------------------------3---------|


Thank you! please rate!


Lyrics:

I got the blues from my baby left me by the san francisco bay,
The ocean liners gone so far away.
Didn't mean to treat her so bad, she was the best girl I ever have had,
She said goodbye, I can take a cry, I want to lay down and die.

I aint got a nickel and I aint got a lousy dime.
She don't come back, think Im going to lose my mind.
If she ever gets back to stay, it's going to be another brand new day,
Walking with my baby down by the san francisco bay.

Sitting down looking from my back door,
Wondering which way to go,
The woman Im so crazy about, she don't love me no more.
Think I'll catch me a freight train, cause Im feeling blue,
And ride all the way to the end of the line, thinking only of you.

Meanwhile, in another city,
Just about to go insane,
Thought I heard my baby, lord, the way she used to call my name.
If I ever get her back to stay, it's going to be another brand new day,
Walking with my baby down by the san francisco bay,



+++++++++++
| Raileff |
+++++++++++
            
Hard to play? Try these video lessons and learn fast. | Correct




comments powered by Disqus
↑ Back to top | Tablatures and chords are parodies/interpretations of the original songs. You may use it for private study, scholarship, research or language learning purposes only