» » »

Running On Faith Bass tabs (ver.1)

Artists:  A B C D E F G H I J K L M N O P Q R S T U V W X Y Z # 

Running On Faith Bass tabs (ver.1)

Eric Clapton
Rating:
0/5 (0 votes)

Hard to play? Try these video lessons and learn fast.
                ++++++++++++++++++++++++++++++++++
| Eric Clapton- Running On Faith |
++++++++++++++++++++++++++++++++++


"All of our dreams would come true..."

This is the MTV Unplugged Version

Tuning: EADG


Intro
1.
G|---------------------------------7------------------------------|
D|-5~---5-4~---4-2~----2--2-40-5~-----4~-----2~-----0-2-5-5~--2-0-|
A|----------------------------------------------------------------|
E|----------------------------------------------------------------|

2.
G|-----------------------------------2-4-5~---7h9p7~------------|
D|--------------------------2-4-5~------------------------7-0-4-|
A|-3~---3-3~----5~---5-5~---------------------------------------|
E|--------------------------------------------------------------|

Verse
"Lately I've been running on faith..."
3.
G|-----------------------------------------------------------|
D|-5~----4~----2~----2-2-2-4-5~----4~----2~----0-2-5~--5-2-0-|
A|-----------------------------------------------------------|
E|-----------------------------------------------------------|

"But my world will be right..."
4.
G|-----------------------------------2-4-5~---7h9p7~------------|
D|--------------------------2-4-5~----------------------0~--2-4-|
A|-3~---3-3~----5~---5-5~---------------------------------------|
E|--------------------------------------------------------------|

"Lately I've been talking in my sleep..."
5.
G|-----------------------------------------------------------------|
D|----------------------------------------------2-1-0~---2-5~--2-0-|
A|--------------------------------------------2--------------------|
E|-3~----2~----0~----0~--0-2-3~----2~----0~------------------------|

"Except my world will be right..."
6.
G|---------------------------------------------------------------|
D|---------------------------------------------------------------|
A|-3~---3-3~---4-5~---5-5~------------0-2-3~-----------------0-2-|
E|---------------------------0-2-3~-------------3~----3-3~-------|

Chorus
"I've always been..."
7.
G|-------------------------------------------------------------|
D|--------------------------0-1-2~---2-0~---2-5----------------|
A|-3~---3-3~----2~---2-2~-----------------------3~---3-3~--2~--|
E|-------------------------------------------------------------|

"Seems like by now..."
8.
G|--------------------------------------------------------------|
D|--------------------------------------------------------024-0-|
A|-0~---0-0~-------0~---0-0~----3~---3-3~---4-5~---5-5~---------|
E|-------------3-4----------------------------------------------|

Verse
"Then we'd go running on faith..."
9.
G|----------------------------------------------------------|
D|-5~----4~----2~----2~---4-5~----4~----2~----0-2-5-2-5-2-0-|
A|----------------------------------------------------------|
E|----------------------------------------------------------|

"And our world will be right..."
10.
G|----------------------------------------------------------------|
D|----------------------------------------------------------------|
A|-3~---3-3~----5~---5-5~------------0-2-3~---5h7p5~----5-55~-5-5-|
E|--------------------------0-2-3~--------------------------------|

Bridge
11.
G|-----------------------------------------------------------|
D|-------------------2~-----------------------1~--0~--5~-2-0-|
A|--------------------------------------2--------------------|
E|-3~----2~----0~-------0-2-3~---3-2~-----0~-----------------|

12.
G|----------------------------------------------------------------|
D|----------------------------------------------------------------|
A|-3~---3-3~--3-4-5~---5-5~------------0-2-3~-----------------0-2-|
E|----------------------------0-2-3~-------------3~----3-3~-------|

Chorus
"I've always been..."
13.
G|------------------------------------------------------------------|
D|-------------------------------0-1-2~---2-0~---2-5----------------|
A|-3-3~--3-3---0-3-2~---4-5-6~-----------------------3~---3-3~--2~--|
E|-----------3------------------------------------------------------|

"Seems like by now..."
14.
G|-----------------------------------------------------------------|
D|----------------567--------------------------------------------4-|
A|-0--045-57-75-5----70-0~----0~-0~-2~-3~---3-3~---4-5~---5-5~-----|
E|--------------------------3--------------------------------------|

Verse
"Then we'd go running on faith..."
15.
G|--------------------------------------------------------------|
D|-5~----4~----2-2~---2~---4-5~--5-----4-2~----2-1-0~--2-5--2-0-|
A|---------------------------------2~---------------------------|
E|--------------------------------------------------------------|

"And our world will be right..."
16.
G|--------------------------------------------------------------|
D|----------------------------------------78--------------------|
A|-3~---3-3~----5~---5-5~---5-8~---8-8~--8---3~---3-3x----8~----|
E|--------------------------------------------------------------|

Outro
"Love comes over you..."
17.
G|-------------------------------------------------------------------|
D|-----0-2-3-2~--20--------------------0-2-3-2-0---------------------|
A|---2--------------3~---3-3~---20---2-----------543~--3-3-3-3-------|
E|-3-------------------------------3---------------------------01010-|

"Love comes over you..."
18.
G|---------------------------------------------------------------------------|
D|---------------------------------------------------------------------------|
A|-----------------123-3~--3-3-3-----------------------2-3-3~---3-3-3~---3-3-|
E|-3-3~---3-1-1~-----------------01010-3-3~---3-1-1~-------------------------|

"Love comes over you..."
19.
G|-------------------------------542-----------------------------------------|
D|--------------5-2-0----------25---24---------------------------------------|
A|--------------------3-3~--3-3--------------------------3-3~---33-3-3~---33-|
E|-3-3~---3-1~-------------------------3-3~---3-1-1~---1---------------------|

"Love comes over you..."
20.
G|-------------------------------------------------------------------------|
D|-------------------------------------------------------------------------|
A|-----------------1-3-3~---3-3-3~---3-------------------3-3~---3-3-3~---3-|
E|-3-3~---3-1-1~-----------------------3-3~---3-1-1~---1-------------------|

4:55
"Love comes over you..."
21.
G|-----------------------------------------------------------------|
D|-----0-2-3-2~--20--------------------0-2-3-2-0-------------------|
A|---2--------------3~---3-3~---20---2-----------543~--3-3-3-3-3-3-|--x3
E|-3-------------------------------3-------------------------------|

"Love comes over you..."
22.
G|------------------------------------------------------------|
D|------------------------------------------------------------|
A|--------------3~---3-3~-----------------------3~---3-3~---2-|
E|-3~---3-1~----------------012-3~---3-1~--1------------------|

"Love comes over you..."
23.
G|-----------------------------|
D|-----------------------------|
A|-------------------3~--------|
E|-3~---3-1~----1~-------------|


Thank you, please rate!!!!


Lyrics:

Lately I've been running on faith
What else can a poor boy do?
But my world will be right
When love comes over you

Lately I've been talking in my sleep
I can't imagine what I'd have to say
Except my world will be right
When love comes back your way

I've always been
One to take each and every day
Seems like by now
I'd find a love who cares just for me

Then we'd go running on faith
All of our dreams would come true
And our world will be right
When love comes over me and you

When love comes over you



+++++++++++
| Raileff |
+++++++++++
            
Hard to play? Try these video lessons and learn fast. | Correct




comments powered by Disqus
↑ Back to top | Tablatures and chords are parodies/interpretations of the original songs. You may use it for private study, scholarship, research or language learning purposes only