>
 >
Reptile

Reptile Guitar Tabs

Eric Clapton - Reptile chords, tabs, tablatures, lyrics

Guitar lessons | Add/correct | Request | Top 50 tabs Artists:  A B C D E F G H I J K L M N O P Q R S T U V W X Y Z 0-9

Reptile Guitar Tabs – Eric Clapton

CD, Sheet music, Poster

Do you like Reptile? Share with your friends now
Tabs

Eric Clapton


E||------|-------------------------------|-------------------------------|
B||------|----0------0------0------0-----|----0------0------0------0-----|
G||------|--------2------2------2------2-|--------2------2------2------2-|
D||------|------2------2------2------2---|------2------2------2------2---|
A||------|--0----------------------------|--0----------------------------|
E||------|-------------------------------|-------------------------------|



-------------------------------|-------x------------------|
----0------0------0------0-----|-------x------------------|
--------2------2------2------2-|-------x----4h6---4--2--1-|
------2------2------2------2---|-------x----4h6---4--2--1-|
--0----------------------------|--0----x--------0---------|
-------------------------------|-------x------------------|



|-------------------------------|-----------------------------|
|------2-------2-------2--------|-----2--------2-----2------0-|
|*-----1----1--1---1---1---1----|-----1----1---1-----1--1-----|
|*----------1------1------------|----------0------------0-----|
|---2-----2------2---2---2---2--|-----------------------------|
|-------------------------------|--0-----0---0-----0------0---|



----------------------------|----------------------------|
-----0-------0--0---0-------|-----0----------------------|
-----2----2--2--2---2--2----|-----2---2----4h6---4--2--1-|
-----2-------2------2--2--2-|---------2----4h6---4--2--1-|
--0-----0---------0---------|--0---------0-----0---------|
----------------------------|----------------------------|



-----------------------------|-------------------------|
-----2-------2--2---2--------|-----2------2----2-------|
-----1----4--1--1---1--1---0-|-----1---1--1----1--1----|
----------4------------1-----|---------0-------0--0----|
--2-----2---------2------2---|-------------------------|
-----------------------------|--0-------------------0--|



--------------------0------|--------------------------|
-----0-------0------0--0---|-----2----2-----2----3----|
-----2----2--2----2----2---|-----2----2-----2----4----|
-----2----2--2--2------2---|----------2---------------|
--0-----0------------------|-------------2-----2------|
---------------------------|--2-----2-----------------|



------------------------4--|---------------------------|
----4-----4-----6----7--7--|-----2----2-----2----3-----|
----4-----4-----4----4--4--|-----2----2-----2----4-----|
----4-----4----------------|-----2----2----------------|
-------------4-----4-------|-------------2-----2----2--|
--4----4-------------------|--2-----2------------------|



----------------0----------|--------------------------||
-----2----2--0-----2----0--|--------------------------||
-----2----2--1-----2----1--|-----------4h6---4--2--1-*||
-----2---------------2-----|-----------4h6---4--2--1-*||
---------------------------|--0------------0----------||
--0-----0------------------|--------------------------||



----------------0---------|---------------------------|
-----2----2--0-----2---0--|-----5----5-----5----5-----|
-----2----2--1-----2---1--|-----4----4-----5----5-----|
-----2----2---------------|-----5----5-----5----5-----|
--------------------------|--3-----3------------------|
--0----0------------------|-------------5-----5----5--|



----------------------------|---------------------------|
-----3----3-----3----3----5-|-----5----5-----5----5-----|
-----5----5-----5----5----4-|-----4----4-----5----5-----|
-----3----3-----3----3----5-|-----5----5-----5----5-----|
--5-----5-------------------|--3-----3------------------|
-------------3-----3----3---|-------------5-----5----5--|



---------------------------|---------------------------|
----3-----3-----3----3-----|-----5----5-----5----5-----|
----5-----5-----5----5-----|-----4----4-----5----5-----|
----3-----3-----3----3-----|-----5----5-----5----5-----|
--5----5----------------3--|--3-----3------------------|
-------------3-----3-------|-------------5-----5----5--|



---------------------------|---------------------------|
-----3----3-----3----3-----|-----5----5-----5----5-----|
-----5----5-----5----5---4-|-----4----4-----5----5-----|
-----3----3-----3----3-----|-----5----5-----5----5-----|
--5-----5------------------|--3-----3------------------|
-------------3-----3-------|-------------5-----5----5--|



--------------------------|-------x-------------------||
-----3----3----3----------|--2----x-------------------||
-----5----5----5--4--1----|--2----x----4h6---4--2--1-*||
-----3----3----3-----0----|--2----x----4h6---4--2--1-*||
--5-----5------------2----|--0----x--------0----------||
-------------3-------0----|-------x-------------------||



----------------0----------|---------------------------|
-----2----2--0-----2----0--|-----5----5-----5----5-----|
-----2----2--1-----2----1--|-----4----4-----5----5-----|
-----2---------------2-----|-----5----5-----5----5-----|
---------------------------|--3-----3------------------|
--0-----0------------------|-------------5-----5----5--|



----------------------------|---------------------------|
-----3----3-----3----3----5-|-----5----5-----5----5-----|
-----5----5-----5----5----4-|-----4----4-----5----5-----|
-----3----3-----3----3----5-|-----5----5-----5----5-----|
--5-----5-------------------|--3-----3------------------|
-------------3-----3----3---|-------------5-----5----5--|



----------------------------|---------------------------|
-----3----3-----3----3----5-|-----5----5-----5----5-----|
-----5----5-----5----5----4-|-----4----4-----5----5-----|
-----3----3-----3----3----5-|-----5----5-----5----5-----|
--5-----5-------------------|--3-----3------------------|
-------------3-----3----3---|-------------5-----5----5--|



----------------------------|---------------------------|
-----3----3-----3----3----5-|-----5----5-----5----5-----|
-----5----5-----5----5----4-|-----4----4-----5----5-----|
-----3----3-----3----3----5-|-----5----5-----5----5-----|
--5-----5-------------------|--3-----3------------------|
-------------3-----3----3---|-------------5-----5----5--|



----------------------------|---------------------------|
-----3----3-----3----3----5-|-----5----5-----5----5-----|
-----5----5-----5----5----4-|-----4----4-----5----5-----|
-----3----3-----3----3----5-|-----5----5-----5----5-----|
--5-----5-------------------|--3-----3------------------|
-------------3-----3----3---|-------------5-----5----5--|



----------------------------|---------------------------|
-----3----3-----3----3----5-|-----5----5-----5----5-----|
-----5----5-----5----5----4-|-----4----4-----5----5-----|
-----3----3-----3----3----5-|-----5----5-----5----5-----|
--5-----5-------------------|--3-----3------------------|
-------------3-----3----3---|-------------5-----5----5--|



----------------------------|---------------------------|
-----3----3-----3----3----5-|-----5----5-----5----5-----|
-----5----5-----5----5----4-|-----4----4-----5----5-----|
-----3----3-----3----3----5-|-----5----5-----5----5-----|
--5-----5-------------------|--3-----3------------------|
-------------3-----3----3---|-------------5-----5----5--|



----------------------------|---------------------------|
-----3----3-----3----3----5-|-----5----5-----5----5-----|
-----5----5-----5----5----4-|-----4----4-----5----5-----|
-----3----3-----3----3----5-|-----5----5-----5----5-----|
--5-----5-------------------|--3-----3------------------|
-------------3-----3----3---|-------------5-----5----5--|



--------------------------|-------x------------------|
-----3----3----3----------|--2----x------------------|
-----5----5----5--4--1----|--2----x----4h6---4--2--1-|
-----3----3----3-----0----|--2----x----4h6---4--2--1-|
--5-----5------------2----|--0----x--------0---------|
-------------3-------0----|-------x------------------|



------------------------------|-----------------------------|
-----2-------2-------2--------|-----2--------2-----2------0-|
-----1----1--1---1---1---1----|-----1----1---1-----1--1-----|
----------1------1------------|----------0------------0-----|
--2-----2------2---2---2---2--|-----------------------------|
------------------------------|--0-----0---0-----0------0---|



----------------------------|----------------------------|
-----0-------0--0---0-------|-----0----------------------|
-----2----2--2--2---2--2----|-----2---2----4h6---4--2--1-|
-----2-------2------2--2--2-|---------2----4h6---4--2--1-|
--0-----0---------0---------|--0---------0-----0---------|
----------------------------|----------------------------|



-----------------------------|-------------------------|
-----2-------2--2---2--------|-----2------2----2-------|
-----1----4--1--1---1--1---0-|-----1---1--1----1--1----|
----------4------------1-----|---------0-------0--0----|
--2-----2---------2------2---|-------------------------|
-----------------------------|--0-------------------0--|



--------------------0------|--------------------------|
-----0-------0------0--0---|-----2----2-----2----3----|
-----2----2--2----2----2---|-----2----2-----2----4----|
-----2----2--2--2------0---|-----2----2---------------|
--0-----0------------------|-------------2-----2------|
---------------------------|--2-----2-----------------|



------------------------4--|---------------------------|
----4-----4-----6----7--7--|-----2----2-----2----3-----|
----4-----4-----4----4--4--|-----2----2-----2----4-----|
----4-----4----------------|-----2----2----------------|
-------------4-----4-------|-------------2-----2----2--|
--4----4-------------------|--2-----2------------------|



------------------------4--|----------------------------|
-----4----4-----6----7--7--|-----2----2-----3----3------|
-----4----4-----4----4--4--|-----2----2-----2----2----2-|
-----4----4-----6----6-----|-----2----2-----4----4------|
-------------4-----4-------|-------------2-----2----2---|
--4-----4------------------|--2-----2-------------------|



------------------------4--|---------------------------|
----4-----4-----6----7--7--|-----2----2-----3----3-----|
----4-----4-----4----4--4--|-----2----2-----2----2-----|
----4-----4-----6----------|-----2----2-----4----4-----|
-------------4-----4-------|-------------2-----2----2--|
--4----4-------------------|--2-----2------------------|



---------------0----------|---------------0----------|
-----2---2--0-------2--0--|-----2---2----------2--0--|
-----2---2--1-------2--1--|-----2---2--1-------2--1--|
-----2---2--2-------2--2--|-----2---2----------2--2--|
--------------------------|--------------------------|
--0---------------0-------|--0---------------0-------|



---------------0----------|-------------------------|--0----------------|
-----2---2--0-------2--0--|-------------------------|--0----------------|
-----2---2--1-------2--1--|--2--------4h6---4--2----|--1----------------|
-----2---2--2-------2--2--|--2--------4h6---4--2----|--2----------------|
--------------------------|--0------------0-------0-|-------------------|
--0---------------0-------|-------------------------|-------------------|


______________________________________________________________________________________


(0:09)
e|-----------------------------------------------------------9-7--------
B|-----5-7-7/9----9-9-7-5----5-------------5-7-9-10-9------9-----9------
G|-6h7----------6---------/6----6\4----6-7-------------7/9--------------
D|----------------------------------------------------------------------
A|----------------------------------------------------------------------
E|----------------------------------------------------------------------

e|-----------------------------------------------------------------------
B|-/7---5------5------------------2-2-3-3/5--4-4/6-7-9---------7-7-5-----
G|----6-----/6---6\4p2------------2-2-4-4/6--4-4/6-8-10--6--/6-------/6-4
D|---------------------4p2-4----4----------------------------------------
A|-----------------------------------------------------------------------
E|-----------------------------------------------------------------------

e|----------------------------------------------------------------------
B|----------------------------------------------------------------------
G|-----2-4p2\1-2--------------------------------------------------------
D|-2h4------------------------------------------------------------------
A|----------------------------------------------------------------------
E|----------------------------------------------------------------------

(0:37)
e|-----------------------------------------------------------9-7--------
B|-----5-7-7/9----9-9-7-5----5-------------5-7-9-10-9------9-----9------
G|-6h7----------6---------/6----6\4----6-7-------------7/9--------------
D|------------------------------6\4-------------------------------------
A|----------------------------------------------------------------------
E|----------------------------------------------------------------------

e|-----------------------------------------------------------------------
B|-/7---5------5------------------2-2-3-3/5--4-4/6-7-9---------7-7-5-----
G|----6-----/6---6\4p2------------2-2-4-4/6--4-4/6-8-10--6--/6-------/6-4
D|---------------------4p2-4----4----------------------------------------
A|-----------------------------------------------------------------------
E|-----------------------------------------------------------------------

e|----------------------------------------------------------------------
B|-2-3/5--5-------------------5-5-6-/8-------------------------5--------
G|-2-4----x-7-5-4-----------5----------7--------5-7p5\4-5------x-7-5-4--
D|----------------7-5-5-7------------------5h7------------7-------------
A|----------------------------------------------------------------------
E|----------------------------------------------------------------------

e|----------------------------------------------------------------------
B|-----------------5-5-5-6-/8-------------------------------------------
G|----------------------------7---7-7-7/9-7-6---------------------------
D|-7-5-5-7---5p4h5------------------------------------------------------
A|----------------------------------------------------------------------
E|----------------------------------------------------------------------


(1:24)
e|-----------------------------------------------------------9-7--------
B|-----5-7-7/9----9-9-7-5----5-------------5-7-9-10-9------9-----9------
G|-6h7----------6---------/6----6\4----6-7-------------7/9--------------
D|------------------------------6\4-------------------------------------
A|----------------------------------------------------------------------
E|----------------------------------------------------------------------

e|-----------------------------------------------------------------------
B|-/7---5------5------------------2-2-3-3/5--4-4/6-7-9---------7-7-5-----
G|----6-----/6---6\4p2------------2-2-4-4/6--4-4/6-8-10--6--/6-------/6-4
D|---------------------4p2-4----4----------------------------------------
A|-----------------------------------------------------------------------
E|-----------------------------------------------------------------------


(1:51) solo
e|-------------------------------------------------------8----8----------
B|----------------------------8-10-8---------------------8h10-8h10p8---8-
G|---------5-7---5------5-7/9--------9\7p5--7p5---5------------------9---
D|-----5-7-----7----5/7-------------------------7---7p5------------------
A|-5/7-------------------------------------------------------------------
E|-----------------------------------------------------------------------

e|-------8----8----8----8-----------------------------------------------
B|-10-8--8h10-8h10-8h10-8h10p8----11p10p8--8-------8b(9)----------------
G|-----------------------------9-------------10p8--8---------------8h9--
D|-------------------------------------------------------10-8-10--------
A|----------------------------------------------------------------------
E|----------------------------------------------------------------------

e|------8-8-------------------------------------------------------------
B|-8-10-----10-8-----------------------5-6-/8--6p5----------------------
G|-----------------9\7p5---5-7p5---5-7-------------7-5---5h7p5---5------
D|-----------------------7-------7---------------------7-------7---7p5--
A|----------------------------------------------------------------------
E|----------------------------------------------------------------------

e|----------------------------------------------------------------------
B|-------------------------------8-----8-----8-----8-----8------11------
G|------------------5h7p5-5--7/9---7/9---7/9---7/9---7/9---9/12---------
D|--------------5-7-----------------------------------------------------
A|-7p5\3--3-5/7---------------------------------------------------------
E|----------------------------------------------------------------------

e|--------------------------15-13----------------------------------15---
B|-------11-------13-----13-------15b(17)-13----13-15-----13-15/16------
G|-10/12----12/14----/14------------------12-14-------/14---------------
D|----------------------------------------------------------------------
A|----------------------------------------------------------------------
E|----------------------------------------------------------------------

e|-------------8-8------------------------------------------------------
B|-16b(1/2)----x---11-8-10-8--------------------------------------------
G|---------------------------8h9----------------------------------------
D|-------------------------------10---------------10-12p10----10--------
A|----------------------------------10\8-7---7/12----------12----12/14--
E|----------------------------------------------------------------------

                                                              fine solo
e|------------------------pb--------------------------------------------
B|-----------------------(11)r10-8--------------------------------------
G|-12------------------------------10-8--8h9---------------------5h7p5--
D|----14\12-10----10-10----------------------10--------------5h7-------7
A|-------------12-------------------------------10\8-7---5/7------------
E|----------------------------------------------------------------------



(2:31)
e|-----------------------------------------------------------9-7--------
B|-----5-7-7/9----9-9-7-5----5-------------5-7-9-10-9------9-----9------
G|-6h7----------6---------/6----6\4----6-7-------------7/9--------------
D|----------------------------------------------------------------------
A|----------------------------------------------------------------------
E|----------------------------------------------------------------------

e|----------------------------------------------------------------------
B|-/7---5------5-7-5----------------2-2-3-3/5--4-4/6-7-9----------------
G|----6-----/6--------6\4-2---------2-2-4-4/6--4-4/6-8-10--6------------
D|--------------------------------4--------------------------7---4p3h4--
A|----------------------------------------------------------------------

E|----------------------------------------------------------------------

e|-2-2--5b(1/2)-2-----------------7/8-7---------------------------------
B|--------------------/6--\4--2---------10-7-10---7---------------------
G|----------------4---/6--\4--2---------------------9--------------9----
D|----------------------------------------------------11\9p7--9/11------
A|----------------------------------------------------------------------
E|----------------------------------------------------------------------

e|----------------------------------------------------------------------
B|----------------------------------------------------------------------
G|-------------------6h7p6----------------------------------------------
D|-11\9p7--9p7---7---------9-7-------------------6-7-/9-7---------------
A|-------------9---------------9-7---7-9------/7----------10b(11)-7-----
E|---------------------------------9-----0------------------------------

e|----------------------------------------------------------------------
B|------------------------------------------------5------5---3---2------
G|--7----------------------------9---7-9------6h7---/6------------------
D|----9\7p5-7-5------5b(6)-----9---9------7------------6---4---2--------
A|----------------7--------7--------------------------------------------
E|----------------------------------------------------------------------





Comments


Popular Eric Clapton tabs & chords
Anyday Chords
Revolution Chords
Running On Faith Chords
Tears In Heaven 1 Chords
Tears In Heaven 3 Chords
Wonderful Tonight 1 Tabs
Change The World Ukulele
Im So Free Ukulele
Sinners Prayer Ukulele
Tulsa Time Ukulele


Song lyrics



↑ Back to top | Tablatures and chords are parodies/interpretations of the original songs. You may use it for private study, scholarship, research or language learning purposes only
© 2014 AZChords.com Contact us | Privacy policy | DMCA | Add/correct tabs | Request tabs | Top 50 tabs