>
 >
Pretending 1

Pretending 1 Guitar Tabs

Eric Clapton - Pretending 1 chords, tabs, tablatures, lyrics

Guitar lessons | Add/correct | Request | Top 50 tabs Artists:  A B C D E F G H I J K L M N O P Q R S T U V W X Y Z 0-9

Pretending 1 Guitar Tabs – Eric Clapton

CD, Sheet music, Poster

Do you like Pretending 1? Share with your friends now
ChordsTabsTabs v2Ukulele
============================================================================

Tuning: Standard  (E A D G B e)

Legend:
h=hammer on
p=pull off
~=vibrato
/=slide up
\=slide down
fdbk.=feedback
r=release bend


    [INTRO]                                                
 Gtr. I                                                   fdbk.
e|---------------------|---------------------------|-----------------------|
B|---------------------|---------------------------|-----------------------|
G|--7h9~~~~~~----------|--7h9----------------------|-----------------------|
D|---------------------|-------9p7--5--------5~~~--|--~~~~~~~~~~~~---------|
A|---------------------|---------------7--7--7~~~--|--~~~~~~~~~~~~---------|
E|---------------------|---------------------------|-----------------------|
 |Gtr.II
e|---------------------|---------------------------|-----------------------|
B|---------------------|---------------------------|-----------------------|
G|---------------------|---------------------------|-----------------------|
D|---------------------|---------------------------|-----------------------|
A|---5-5--5--5-5--5-5h7|---5-5--5-5-5-5--5--5h7----|---5-5--5-5-5-5--5-5h7-|
E|-0-------------------|-0-------------------------|-0---------------------|

  Gtr. I
e|---------------------|---------------------------|-----------------------|
B|---------------------|---------------------------|-----------------------|
G|-------12-14h16~~----|--14h16~~~~~~~---b16r14p12-|-14~~~~-----12-14b16---|
D|-12h14---------------|---------------------------|-----------------------|
A|---------------------|---------------------------|-----------------------|
E|---------------------|---------------------------|-----------------------|
 |Gtr.II
e|---------------------|---------------------------|-----------------------|
B|---------------------|---------------------------|-----------------------|
G|---------------------|---------------------------|-----------------------|
D|---------------------|---------------------------|-----------------------|
A|---5-5--5--5-5-5-5h7-|-----5--5--5-5--5--5h7-----|---5-5--5-5-5-5--5-5h7-|
E|-0-------------------|--0------------------------|-0---------------------|

  Gtr.I
e|---------------------|---------------------------|-----------------------|
B|---------------------|---------------------------|-----------------------|
G|-r14b16rp12----------|---------12--12--14---12~~-|--12~~~~~~~~~~---------|
D|------------14~~~~---|--12h14--------------------|-----------------------|
A|---------------------|---------------------------|-----------------------|
E|---------------------|---------------------------|-----------------------|
 |Gtr.II
e|---------------------|---------------------------|-----------------------|
B|--2-------2h3--2h3---|--2----0--2--3---2-2-2-2---|--0-0-0-0-0-0-0-0-0-0--|
G|--0-------0----0-----|--0----0--0--0---0-0-0-0---|--1-1-1-1-1-1-1-1-1-1--|
D|--2-------2----2-----|--2----2--2--2---2-2-2-2---|--2-2-2-2-2-2-2-2-2-2--|
A|--0----0--0----0-----|--0----0--0--0---0-0-0-0---|--2-2-2-2-2-2-2-2-2-2--|
E|---------------------|---------------------------|-0-----------0---------|

  Gtr.I
e|---------------------||
B|---------------------||
G|-7h9--7--------------||
D|---------9p7--5------||
A|----------------7--7-||
E|-------------------0-||
 |Gtr.II
e|---------------------||
B|-0--0--0--0-0-0-0----||
G|-1--1--1--1-1-1-1----||
D|-2--2--2--2-2-2-2----||
A|-2--2--2--2-2-2-2----||
E|---------------------||

    
    [CHORUS]
e|-------------|------------------|-------------------|
B|-------------|------------------|-------------------|
G|-------------|------------------|----------9--------|
D|-------------|--11/12--11--9\7--|--9/11-------------|
A|-------------|------------------|-------------------|
E|-------------|------------------|-------------------|
 |
e|--17-----12--|-------10-10--10--|-------------------|
B|--17-----12--|-10----10-10--10--|-------------------|
G|--14-----13--|-10h11-11-11--11--|-------------------|
D|--14-----14--|-12----12-12--12--|-------------------|
A|--12---------|------------------|-------------------|
E|-------------|------------------|-------------------|

e|-------------------------|--------------------------|
B|------10~~---10h12--10~~-|-~~~~~~~------------------|
G|-9/11-----11-------------|--------------------------|
D|-------------------------|--------------------------|
A|-------------------------|--------------------------|
E|-------------------------|--------------------------|

e|----------------|--------------------|-------------||
B|----------------|--------------------|-------------||
G|----------------|--------9-----------|-------------||
D|-11/12--11\9\7--|--9/11-----9--11--7-|-~~~~~~~~----||
A|----------------|--------------------|-------------||
E|----------------|--------------------|-------------||

e|----------------|--------------------|------------------------------|
B|----------------|--------------------|------------------------------|
G|----------------|--------------------|---14b16--b16-b16-b16--b16----|
D|--12/14~~~~~~~--|-14~~~~~~~~~~~~~~~--|------------------------------|
A|----------------|--------------------|------------------------------|
E|----------------|--------------------|------------------------------|

e|----------------|--------------------|------------------------------|
B|----------------|--------------------|------------------------------|
G|--14b16rp12-----|--12h14-12h14----12h|14--14b16--14--12-------------|
D|-----------14~~-|--------------------|-----------------14-----------|
A|----------------|--------------------|------------------------------|
E|----------------|--------------------|------------------------------|

e|----------------|------------------------|-----------||
B|-----15p12h15---|------------------------|-----------||
G|----------------|-14b16rp12--------------|-----------||
D|-14-------------|----------14------------|-----------||
A|----------------|------------14p12-10----|-----------||
E|----------------|--------------------12--|--0--------||


    [GUITAR SOLO]
  Gtr.I
e|--------------------------|----------------------------|
B|--------------------------|----------------------------|
G|--14b16rb16-----b16r14p12-|-14~~~~--12~~~---14b16------|
D|--------------------------|------------------------0---|
A|--------------------------|----------------------------|
E|--------------------------|----------------------------|
 |Gtr.II
e|--------------------------|----------------------------|
B|--0-0-0-0-0-0--0-0-0-0-0-0|--0-0-0-0-0---0-0-0-0-0-0-0-|
G|--1-1-1-1-1-1--1-1-1-1-1-1|--1-1-1-1-1---1-1-1-1-1-1-1-|
D|--2-2-2-2-2-2--2-2-2-2-2-2|--2-2-2-2-2---2-2-2-2-2-2-2-|
A|--2-2-2-2-2-2--2-2-2-2-2-2|--2-2-2-2-2---2-2-2-2-2-2-2-|
E|0------------0------------|0-----------0---------------|

  Gtr.I
e|--------------------------|----------------------------|
B|-----------15-------------|----------------------------|
G|---14b16------b16-r14-p12-|-14~~~---12-----------------|
D|--------------------------|------------14--14----------|
A|--------------------------|-------------------14\12/---|
E|--------------------------|----------------------------|
 |Gtr.II
e|--3-3-3-3-3-3-3-3-3-3-3-3-|--3-3-3-3-3-3-3-3-3-3-3-3-3-|
B|--3-3-3-3-3-3-3-3-3-3-3-3-|--3-3-3-3-3-3-3-3-3-3-3-3-3-|
G|--4-4-4-4-4-4-4-4-4-4-4-4-|--4-4-4-4-4-4-4-4-4-4-4-4-4-|
D|--5-5-5-5-5-5-5-5-5-5-5-5-|--5-5-5-5-5-5-5-5-5-5-5-5-5-|
A|--------------------------|----------------------------|
E|3-------------------------|----------------------------|

  Gtr.I
e|--------------------------|------------------------------------|
B|--------------------------|------------------------------------|
G|-------12~~-14b16-14p12---|-12h14-14-14b16r14p12--14b16r14p12--|
D|-12h14-----------------14-|------------------------------------|
A|--------------------------|------------------------------------|
E|--------------------------|------------------------------------|
 |Gtr.II
e|--5-5-5-5-5--5-5-5-5-5-5--|---5-5-5-5-5-5-5-----5-5-5-5-5-5----|
B|--5-5-5-5-5--5-5-5-5-5-5--|---5-5-5-5-5-5-5-----5-5-5-5-5-5----|
G|--6-6-6-6-6--6-6-6-6-6-6--|---7-7-7-7-7-7-7-----6-6-6-6-6-6----|
D|--5-5-5-5-5--5-5-5-5-5-5--|---5-5-5-5-5-5-5-----5-5-5-5-5-5----|
A|--------------------------|------------------------------------|
E|5-------------------------|-5---------------5------------------|

  Gtr.I
e|--------------------------|------------------------------------|
B|--------------------------|------------------------------------|
G|----12b13-----------------|------------------------------------|
D|-14-------14-14-----------|------------------------------------|
A|---------------14p12-10---|--12b14-11--------------------------|
E|-----------------------12-|-----------12-5b8--3---5---3b4------|
 |Gtr.II
e|---0-0-0-0-0-0---0-0-0-0--|---0-0-0-0-0-0----0-0-0-0-0-0-------|
B|---0-0-0-0-0-0---0-0-0-0--|---0-0-0-0-0-0----0-0-0-0-0-0-------|
G|---1-1-1-1-1-1---1-1-1-1--|---1-1-1-1-1-1----1-1-1-1-1-1-------|
D|---2-2-2-2-2-2---2-2-2-2--|---2-2-2-2-2-2----2-2-2-2-2-2-------|
A|---2-2-2-2-2-2---2-2-2-2--|---2-2-2-2-2-2----2-2-2-2-2-2-------|
E|-0-------------0----------|-0--------------0-------------------|

    

Sorry, I know I'm missing some of it
but this is all I managed pick out.
*LATER* 





Comments


Popular Eric Clapton tabs & chords
Running On Faith Bass Tabs
Golden Ring Chords
Heads In Georgia Chords
I Shot The Sheriff 3 Chords
Wonderful Tonight 3 Chords
Ain't Nobody's Business 1 Tabs
Help Me Up 1 Tabs
Let It Rain Tabs
Bell Bottom Blues 2 Ukulele
Rocking Chair Ukulele


Song lyrics



↑ Back to top | Tablatures and chords are parodies/interpretations of the original songs. You may use it for private study, scholarship, research or language learning purposes only
© 2014 AZChords.com Contact us | Privacy policy | DMCA | Add/correct tabs | Request tabs | Top 50 tabs