» » »

Old Love Tabs (ver.2)

Artists:  A B C D E F G H I J K L M N O P Q R S T U V W X Y Z # 

Old Love Tabs (ver.2)

Eric Clapton
Rating:
0/5 (0 votes)

Hard to play? Try these video lessons and learn fast.
                (Live)
-------------------------------------------------------------------------
                             OLD LOVE ELECTIRC (LIVE)- Eric Clapton
-------------------------------------------------------------------------

Tuning: Standard

INTRO:

e|-----------------X--5--X---3--X--3--X------------------X--5--X--3--X--3-|
B|-----------------X--6--X---3--X--3--X------------------X--6--X--3--X--3-|
G|------------5~~--X--5--X---5--X--4--X------------------X--5--X--5--X--4-|
D|------5--7-------X--7--X---3--X--5--X------5-----------X--7--X--3--X--5-|
A|--5/7------------X--5--X---5--X--5--X--5/7---7/5-3-----X--5--X--5--X--5-|
E|--5/7------------X-----X------X-----X---------------5~-X-----X-----X----|

e|------------------------x--3--x--3--------------------------5-x--3-x--3-|
B|------------------------x--3--x--3--------------------------6-x--3-x--3-|
G|------------7b--5-5-5~--x--5--x--4--------------------------5-x--5-x--4-|
D|------5--7--------------x--3--x--5------5-------------------7-x--3-x--5-|
A|--5/7-------------------x--5--x--5--5/7---7/5--3-------5/7--5-x--5-x--5-|
E|------------------------x-----x------------------5-3-5--------x----x----|

VERSE:

e|--5-x--5-x--3-x--3------3/5-x--5-x--3-x--3-----|
B|--5-x--6-x--3-x--3------3/5-x--6-x--3-x--3-----|
G|--6-x--5-x--5-x--4-x3---4/6-x--5-x--5-x--4-----|
D|--7-x--7-x--3-x--5------5/7-x--7-x--3-x--5-----|
A|--7-x--5-x--5-x--5------5/7-x--5-x--5-x--5-----|
E|----x----x----x-------------x----x----x--------|

CHORUS:
"And it's making me so angry...."

e|--1---------5-------|       |--1-------5--5--5--5--5--|
B|--1---------5-------|       |--1-------5--5--5--5--5--|
G|--2---X8----5--X8---| x3    |--2--x8---5--5--5--5--5--|  "Old Love"
D|--3---------7-------|       |--3-------7--7--7--7--7--|
A|--3---------7-------|       |--3-------7--7--7--7--7--|
E|--------------------|       |-------------------------|


Solo: still in progress.

| /  slide up
| \  slide down
| h  hammer-on
| p  pull-off
| ~  vibrato
| +  harmonic
| x  Mute note
===============================================================================
            
Hard to play? Try these video lessons and learn fast. | Correct




comments powered by Disqus
↑ Back to top | Tablatures and chords are parodies/interpretations of the original songs. You may use it for private study, scholarship, research or language learning purposes only