>
 >
Old Love 2

Old Love 2 Guitar Tabs

Eric Clapton - Old Love 2 chords, tabs, tablatures, lyrics

Guitar lessons | Add/correct | Request | Top 50 tabs Artists:  A B C D E F G H I J K L M N O P Q R S T U V W X Y Z 0-9

Old Love 2 Guitar Tabs – Eric Clapton

CD, Sheet music, Poster

Do you like Old Love 2? Share with your friends now
Bass TabsChordsTabsTabs v2Ukulele
Artist : Eric Clapton
Song : Old Love (Solo)
Album : Eric Clapton Unplugged

Hi I'm only 15 years old and i've only been playing guitar for just about a year
now and this is my first tab, so sorry about any mistakes which will hopefully
won't be that many, I'm pretty sure this tab is correct though, it's a very hard
solo to play but after a lot of practice you'll get it. Good Luck

 
Key:

  H = Hammer on
  P = Pull Off 
  / = Slide 
 (x)= Silent Note (a note which can hardly be heard)
  ~ = Vibrate 
  b = Bend Slightly
  
I-12-b12--------------------------------------------------------------
I-13-b13-----------------12--13-12-----12---13--12h13p12-----12--12~--
I---------14-----14--14------------(14)------------------14-----------
I-------------14------------------------------------------------------
I---------------------------------------------------------------------
I---------------------------------------------------------------------

 ---------------------------------------------------------------------
 --12-13-15--13h15p13--12--13--12h13p12--------12-12-12~--------------
 ------------------------------------------14---------------14-14-14--
 ---------------------------------------------------------------------
 ---------------------------------------------------------------------
 ---------------------------------------------------------------------

 --12---10--12--10h12p10-------10-------------------------------------
 ---------------------------13-----13--10--13--10-------10------------
 --------------------------------------------------(12)-----12/14-----
 ---------------------------------------------------------------------
 ---------------------------------------------------------------------
 ---------------------------------------------------------------------

 -----------------------------------------7--8--7h8p7-------7---------
 -------------------------------------10----------------10-----10--8--
 ---10--12--12--12--12/(7)/--------9----------------------------------
 ---------------------------------------------------------------------
 ---------------------------------------------------------------------
 ---------------------------------------------------------------------

 ---------------------------------------------------------------------
 ---------------------------------------------------------------------
 --9--7--9--7---5h7p5------5--4---------------------------------------
 ----------------------7--------7--5----------------------------------
 ------------------------------------7--6--5--3---3--5--5/7--5--7-----
 -----------------------------------------------5------------------5--

 ---------------------------------------------------------------------
 -------------------------------------------------5-------------------
 ---------------------------------------4--5---7-----7--5h7p5--4---5--
 ----------------------7---7------5--7--------------------------------
 ---3--5----------(5)----------5--------------------------------------
 ---------------------------------------------------------------------

 ---------------------------------------------------------------------
 ---------------------------------------------------------------------
 --4h5p4--2--4---2h4p2------2---------------------------------------5-
 -----------------------5--------5---2-------------------------5--7---
 ----------------------------------------5---7-------3--5--5/7--------
 ---------------------------------------------------------------------

 -------------------------8------8----/8-----8---10--10/12-----10--12-
 -------8--8--8--8--8-----8------8--------10--------------------------
 --7/9--9--9--9--9--9-----9------9------------------------------------
 ---------------------------------------------------------------------
 ---------------------------------------------------------------------
 ---------------------------------------------------------------------
 
 ---15--12-------12---12~-12~-12~--------12---------------------------
 ------------15-------------------------------15--13--12---------12---
 ---------------------------------------------------------14----------
 ---------------------------------------------------------------------
 ---------------------------------------------------------------------
 ---------------------------------------------------------------------

 ---------------------------------------------------------------------
 -----------------12--13------13--12----12~--12~--12~-----------------
 --14-------14-----------------------14-------------------------------
 ------(14)-----------------------------------------------------------
 ---------------------------------------------------------------------
 ---------------------------------------------------------------------

 ---------------------------------------------------------------------
 --13--15---13--15---15/17--15--17---15~--17---15h17p15--13-15-17-15--
 ---------------------------------------------------------------------
 ---------------------------------------------------------------------
 ---------------------------------------------------------------------
 ---------------------------------------------------------------------

 ---------------------------------------------------------------------
 ----------15--17--15h17p15-----15-17-15h17p15----15-17-15h17p15------
 --17--17--------------------17----------------17------------------17-
 ---------------------------------------------------------------------
 ---------------------------------------------------------------------
 ---------------------------------------------------------------------

 ---------------------------------------------------------------------
 ----15-17-15h17p15------15-------------------------------------8--8--
 --------------------17------17--14--14--14--14--14--14----5/9--------
 ---------------------------------------------------------------------
 ---------------------------------------------------------------------
 ---------------------------------------------------------------------

 ----------------7--8--10--8h10p8------8--7--10--10--10--10--10---8---
 ------8-----10--------------------10--------12--12--12--12--12--10---
 ---9-----9-----------------------------------------------------------
 ---------------------------------------------------------------------
 ---------------------------------------------------------------------
 ---------------------------------------------------------------------

 ---8---8---7--7--7---5--5--------------------------------------------
 --10--10---8--8--8---5--5--------------------------------------------
 ---------------------------7--5--4-----------------------------------
 ------------------------------------7--5-----------------------------
 -------------------------------------------7--6--5~----3--5--3h5p3---
 -------------------------------------------------------------------5-

 ---------------------------------------------------------------------
 ---------------------------------------------------------------------
 ---------------------------------------------------------------------
 ---------------------------------------------------------------------
 --3--5-----3--5--5/6---5--3------3--5--3h5p3-----3-------------------
 --------5---------------------5---------------5-----5---3h5p3p0------

 ---------------------------------------------------------------------
 ---------------------------------------------------------------------
 ---------------------------------------------------------------------
 ----------------5--7--5h7p5-----5-----------------------5--7---------
 --5/7--7--7--7---------------7------7/5p3----5--3--5/7---------------
 ---------------------------------------------------------------------
 
 ------------------------------------------------7--8--10------8------
 ---------------------5-----5-------8-----8--10-------------10-----10-
 ---------4--5---5h7-----7-----7/9-----9------------------------------
 ---5--7--------------------------------------------------------------
 ---------------------------------------------------------------------
 ---------------------------------------------------------------------

 ---8--8--10--12--10h12p10-----10-----------------------------15--12--
 ---------------------------13-----13/15------13------13~-------------
 -------------------------------------------------14------------------
 ---------------------------------------------------------------------
 ---------------------------------------------------------------------
 ---------------------------------------------------------------------

 -------12------(0)---(0)-------------(0)-----------------------------
 ---15------15--13----12------12--13--12---------------12--13--15-----
 ------------------------------------------14------14-----------------
 ----------------------------------------------14---------------------
 ---------------------------------------------------------------------
 ---------------------------------------------------------------------

 --12--12--12--12--12----------------------12--12--12/10--10--10------
 --15--15--15--15--15--15--13--13--12--12--13--13--13/12--12--12------
 ---------------------------------------------------------------------
 ---------------------------------------------------------------------
 ---------------------------------------------------------------------
 ---------------------------------------------------------------------

 ------7---9--7h8p7-----7~--(7)---------------------------------------
 --10----------------8------------------------------------------------
 ---------------------------------------------------------------------
 ---------------------------------------------------------------------
 ---------------------------------------------0---3-------------0---2~
 ---------------------------------------0---3-------------0--3--------

 --------------------------------------------------------------------I
 --------------------------------------------------------------------I
 --------------------------------------------------------------------I
 --------------------------------------------------------------------I
 -----------0-----3--0-----------------------------------------------I
 ---0----3--------------3--------------------------------------------I

And that's about it, have any trouble or corrections e-mail me





Comments


Popular Eric Clapton tabs & chords
Wonderfull Tonight Bass Tabs
Easy Now Chords
Please Be With Me 1 Chords
Tears In Heaven Chords
Knocking On Heavens Door Drum Tabs
Help Me Up 2 Tabs
For Your Love Ukulele
Layla 2 Ukulele
Lonley Stranger Ukulele
My Fathers Eyes 2 Ukulele


Song lyrics



↑ Back to top | Tablatures and chords are parodies/interpretations of the original songs. You may use it for private study, scholarship, research or language learning purposes only
© 2014 AZChords.com Contact us | Privacy policy | DMCA | Add/correct tabs | Request tabs | Top 50 tabs