» » »

Nobody Knows You When Youre Down And Out Tabs (ver.1)

Artists:  A B C D E F G H I J K L M N O P Q R S T U V W X Y Z # 

Nobody Knows You When Youre Down And Out Tabs (ver.1)

Eric Clapton
Rating:
0/5 (0 votes)

Hard to play? Try these video lessons and learn fast.
                -------------------------------------------------------------------------------
                          Nobody Knows You When Youre Down And Out
                                Eric Clapton - Unplugged
-------------------------------------------------------------------------------

Tuning:Standrd (EADGBe)
This is not the song note for note. It is a simplyfied version of it novice players can 
play it. but it still sounds good.
NOTE (This version is finger picked)
  This Is My First Tab And Im 13 Years Old So If You Have Any Criticism Please 
Make It Constructive.
Have Fun


e|---------0-----------------------0---------------------3-------------------|
B|---------1-----------------------0---------------------2-------------------|
G|------0-------0----------------1-------1-------------2--------2------------|
D|---------------------------------------------------------------------------|
A|---3-----------------------2--------------------0--------------------------|
E|---------------------------------------------------------------------------|


e|---------3--------------------------1----------------------0---------------|
B|---------2--------------------------3----------------------2---------------|
G|----2----------2----------------2----------2-----------0-----------0-------|
D|--2------------------------0-----------------------------------------------|
A|----------------------------------------------------0----------------------|
E|---------------------------------------------------------------------------|

e|--------1----------------------------------------------1-------------------|
B|--------3----------------------------------------------1-------------------|
G|-----2---------2-----------2-----------------------2----------2------------|
D|--0---------------------0----------------0h1-2-3---------------------------|
A|---------------------------------------------------------------------------|
E|---------------------------------------------------------------------------|

e|---------5------------------0----------------------3-----------------------|
B|---------4------------------1----------------------2-----------------------|
G|------5----------5----------0-----------------2----------------------------|
D|--4------------------------------------------------2-----------------------|
A|----------------------------3---2-1--0~~-----------------------------------|
E|---------------------------------------------------------------------------|

e|-----------------------------------------------------3---------------------|
B|----------3----------------------3-------------------0---------------------|
G|----------5----------------------5----------------0-------0----------------|
D|------4-------4--------------4--------4------------------------------------|
A|---5-----------------------------------------------------------------------|
E|---------------------5-------------------------3---------------------------|

e|----------1--------------------------0~~-----------------------------------|
B|----------0--------------------------1~~-----------------------------------|
G|-------0--------0--------------------0~~-----------------------------------|
D|-------------------------------------2~~-----------------------------------|
A|-------------------------------------3~~-----------------------------------|
E|---3-----------------------------------------------------------------------|

This is Repeated
            
Hard to play? Try these video lessons and learn fast. | Correct




comments powered by Disqus
↑ Back to top | Tablatures and chords are parodies/interpretations of the original songs. You may use it for private study, scholarship, research or language learning purposes only