» » »

Eric Clapton, Nobody Knows You When Youre Down And Out Tabs (ver.4)

Artists:  A B C D E F G H I J K L M N O P Q R S T U V W X Y Z # 

Nobody Knows You When Youre Down And Out Tabs (ver.4)

Eric Clapton Tabs
 Rating:
4/5 (4 votes)
Nobody Knows You When Youre Down And Out lessons Tabs too difficult? Try these video lessons and learn fast
1
                Nobody knows you when you're down and out - Eric Clapton

I had to play this song on school, and it took some time to find out how to play it.
I don't want i did it for nothing(except a good mark;)), so I shared it with you!

Listen to the song to get the rythm


   C         E7       A7
e|------0--------0--------3--------3---3-----|
B|------1--------3--------2--------2---2-----|
G|----0---0----1---1----2---2----2---2---2---|
D|--------------------2--------2-------------|
A|--3--------2-------------------------------|
E|-------------------------------------------|
  Once I lived the life of a millionaire,

    Dm       A7       Dm
e|------1--------3--------1-------1---1------|
B|------3--------2--------3-------3---3------|
G|----2---2----2---2----2---2---2---2---2----|
D|--0--------2--------0--------0-------------|
A|-------------------------------------------|
E|-------------------------------------------|
  Spent all my money, I just did not care.

    Dm       D7       C        A7
e|------1--------2--------0--------3---3-----|
B|------3--------1--------1--------2---3-----|
G|----2---2----2---2----0---0----2---2---2---|
D|--0--------0-----------------2-------------|
A|--------------------3----------------------|
E|-------------------------------------------|
  Took all my friends out for a good time,

    D7                G7
e|------2--------2--------1--------1---1-----|
B|------1--------1--------0--------0---0-----|
G|----2---2----2---2----0---0----0---0---0---|
D|--0--------0-------------------------------|
A|-------------------------------------------|
E|--------------------3--------3-------------|
  Bought bootleg whisky, champagne and wine. 


I began to fall so low,
Lost all my good friends, I did not have nowhere to go.
I get my hands on a dollar again,
I'm gonna hang on to it till that eagle grins. 

'Cause no, no, nobody knows you
When you're down and out.
In your pocket, not one penny,
And as for friends, you don't have any. 

When you finally get back up on your feet again,
Everybody wants to be your old long-lost friend.
Said it's mighty strange, without a doubt,
Nobody knows you when you're down and out. 

When you finally get back upon your feet again,
Everybody wants to be your good old long-lost friend.
Said it's mighty strange,
Nobody knows you when you're down and out.
            
Submit corrections

comments powered by Disqus
↑ Back to top | Eric Clapton Tabs for Nobody Knows You When Youre Down And Out. Lyrics for acoustic guitar and electric guitar. 1 Tablatures and chords are parodies/interpretations of the original songs. You may use it for private study, scholarship, research or language learning purposes only