» » »

Eric Clapton, My Father's Eyes Tabs (ver.1)

Artists:  A B C D E F G H I J K L M N O P Q R S T U V W X Y Z # 

My Father's Eyes Tabs (ver.1)

Eric Clapton Tabs
 Rating:
4/5 (4 votes)
My Father's Eyes lessons Tabs too difficult? Try these video lessons and learn fast
                Intro lead:
e|-------------------------------------------------------------------
B|-------------------------------------------------------------------
G|-4/6~~--9-8--9-9~~---11b13--r11-9/6~~4--9-8--9-9--6~--8/6/4/6~~----
D|-------------------------------------------------------------------
A|-------------------------------------------------------------------
E|-------------------------------------------------------------------

Bridge
e|----------------------------------12-11-12-12~-----
B|-12~--12b14--12~--9---------12---------------------
G|---------------------11p9-9------------------------
D|---------------------------------------------------
A|---------------------------------------------------
E|---------------------------------------------------

Solo
e|------12---12-11-12-12~---14b16--12h14p12~~12-11-12-12----------------------------
B|-9/12--------------------------------------------------10/12-10-9/10-7-4/7/4-2/5/7
G|----------------------------------------------------------------------------------
D|----------------------------------------------------------------------------------
A|----------------------------------------------------------------------------------
E|----------------------------------------------------------------------------------
            
Submit corrections

comments powered by Disqus
↑ Back to top | Eric Clapton Tabs for My Father's Eyes. Lyrics for acoustic guitar and electric guitar. Tablatures and chords are parodies/interpretations of the original songs. You may use it for private study, scholarship, research or language learning purposes only