» » »

Let It Rain Tabs (ver.2)

Artists:  A B C D E F G H I J K L M N O P Q R S T U V W X Y Z # 

Let It Rain Tabs (ver.2)

Eric Clapton
Rating:
0/5 (0 votes)

Hard to play? Try these video lessons and learn fast.
                (Intro)
  Gtr I
  a Q    Q   E E  E   E   +E  Q.   +Q.   E
|---------------------3-|-(3)--------------|
|-3h5----5---5p3--5-----|-----3----(3)-----|
|-----------------------|------------------|
|-----------------------|------------------|
|-----------------------|------------------|
|-----------------------|------------------|
|
| Gtr II
| a Q    Q   E E  E a E    E  Q.   +Q.   E
|-----------------------|------------------|
|-----------------------|------------------|
|-4s6----6---6p4--6-6s7-|-----4----(4)-----|
|-5s7----7---7p5--7-7s9-|-----5----(5)-----|
|-----------------------|------------------|
|-----------------------|------------------|
  a E  E E E E E  E a E    E  Q.   +Q.   E


  a Q    Q   E E E E   +Q   E S S E S S +S  S E
|-2h3----3---3s2---5-|-(5)--------0--------------|
|----------------3---|--------0h2-----3-(3)---2--|
|--------------------|--------------4-------2----|
|--------------------|---------------------------|
|--------------------|---------------------------|
|--------------------|---------------------------|
|
|   Q    Q   E E E E   +Q.    S S E S S +S  S E
|--------------------|---------------------------|
|------------------5-|-(5)--------2--------------|
|---7----7---7s6-4-6-|-(6)----0h2-----4-(4)---2--|
|-7s9----9---9s7-5---|------------5-4-4-(4)-2-2--|
|--------------------|--------5h7---5-------4----|
|--------------------|---------------------------|
  a E  E Q   E E E E   +Q.    S S E S S +S  S E


  a Q    Q   E E  E   E   +E  Q.   +Q.   E
|---------------------3-|-(3)--------------|
|-3h5----5---5p3--5-----|-----3----(3)-----|
|-----------------------|------------------|
|-----------------------|------------------|
|-----------------------|------------------|
|-----------------------|------------------|
|
| a Q    Q   E E  E a E    E  Q.   +Q.   E
|-----------------------|------------------|
|-----------------------|------------------|
|-4s6----6---6p4--6-6s7-|-----4----(4)-----|
|-5s7----7---7p5--7-7s9-|-----5----(5)-----|
|-----------------------|------------------|
|-----------------------|------------------|
  a E  E E E E E  E a E    E  Q.   +Q.   E


    Q    Q   E E E E   +E  Q  E +E  Q  E
|---3----3---3s2---5-|-(5)-3--2-(2)------||
|----------------3---|--------------5--3-||
|--------------------|-------------------||
|--------------------|-------------------||
|--------------------|-------------------||
|--------------------|-------------------||
|
|   Q    Q   E E E E   +E  Q  E +E  Q  E
|--------------------|-------------------||
|------------------5-|-(5)---------------||
|---7----7---7s6-4-6-|-(6)-4--2-(2)-0----||
|-7s9----9---9s7-5---|-----------------0-||
|--------------------|-------------------||
|--------------------|-------------------||
            
Hard to play? Try these video lessons and learn fast. | Correct




comments powered by Disqus
↑ Back to top | Tablatures and chords are parodies/interpretations of the original songs. You may use it for private study, scholarship, research or language learning purposes only