>
 >
Layla Unplugged Complete

Layla Unplugged Complete Guitar Tabs

Eric Clapton - Layla Unplugged Complete chords, tabs, tablatures, lyrics

Guitar lessons | Add/correct | Request | Top 50 tabs Artists:  A B C D E F G H I J K L M N O P Q R S T U V W X Y Z 0-9

Layla Unplugged Complete Guitar Tabs – Eric Clapton

CD, Sheet music, Poster

Do you like Layla Unplugged Complete? Share with your friends now
Tabs
this is the first solo

e|------------------------------------------
b|---------5h6-p5----------5--6-------------
g|-5---7--------------7------------7--------
d|------------------------------------------
a|------------------------------------------
E|------------------------------------------

e|------------------------------------10-12-10
b|-5-6/8---6-8/10---8-10/13---10-13---------
g|------------------------------------------
d|------------------------------------------
a|------------------------------------------
E|------------------------------------------

e|------------------------------------------
b|-13-10-----------------------------5h6-p5-
g|----------12-10-9-10-9-7-----5--7-----------7p5-
d|------------------------------------------
a|------------------------------------------
E|------------------------------------------

e|------------------------------------------
b|------------------------------------------
g|------------------------------------------
d|--7-6-5-3-5p3----------3------------------
a|-----------------5-----------------3------
E|------------------------------5-----------

then it goes into your verse of C#m G# C#m C D E E7 F#m B E E7 A F#m 
B E A 
then chorus of Dm Bb C Dm (i think 5 times) then chorus

the song goes  

first solo
verse
chorus
verse
chorus
verse
chorus
chorus
solo
chorus
chorus
end solo

Here’s the main solo

e|-5---5b--------5--5--5b-------5b--------
b|-6---6b--------6--6--6b-------6b--------
g|-----------7--------------7-------------
d|----------------------------------------
a|----------------------------------------
E|----------------------------------------

e|----------------------------------------
b|-----------------------------12/13--13--13-}this part do 6 times
g|-7-5-------------------------13/14--14--14-}fast
d|------7-6-5-3-5-3-----3-----------------
a|-------------------5--------------------
E|----------------------------------------

e|----------------------------------------
b|-13-15-13--------------------------10-13-
g|------------14/12--10-------10-12-------
d|-----------------------12---------------
a|----------------------------------------
E|----------------------------------------

e|-10h12p10-------------------------------
b|-------------13-10-11-10----------------
g|--------------------------12-10--7h9-7--
d|----------------------------------------
a|----------------------------------------
E|----------------------------------------

e|----------------------------------------
b|----------5-6-5-------------------------
g|-5-----7-----------7-5------------------
d|----7--------------------7-6-5-3-5-3-----3-
a|-------------------------------------5--
E|----------------------------------------

e|-13b---10-------10-12-10----------------
b|------------13------------13-10---------
g|----------------------------------12-10--
d|---------------------------------------12-
a|----------------------------------------
E|----------------------------------------

e|-13b--10-------15-15-15-15-13--------10-
b|----------13---------------------10-----------
g|-----------------------------------------------
d|-----------------------------------------------
a|-----------------------------------------------
E|----------------------------------------------

e|-12-13-15-13-15-12-13-----------------------
b|------------------------15-13------------13--------
g|-------------------------------14-12-10------12----
d|---------------------------------------------------
a|---------------------------------------------------
E|---------------------------------------------------

e|-------------------10-----------------------------
b|-10----------------10----------------------------
g|------12-10--------10---------------------------
d|-------------12---------9-9-9-9-10---9/7------
a|---------------------------------------------------
E|---------------------------------------------------

e|---------------------------------------------------
b|---------------------------------------------------on to chorus
g|-7-5-----------------------------------------------
d|--------7-6-5---3b-------------0-----------------
a|-----------------------0--3------------------------
E|---------------------------------------------------

Here’s the end solo

E|---------------------------------------------------
B|---------5----5h6p5h6p5-------5-6/8---------
G|-5-7--------------------------7------------------
D|---------------------------------------------------
A|---------------------------------------------------
E|---------------------------------------------------






E|---------------------------------------------------
B|-8-6-5----5h6p5h6p5--------------------------
G|----------------------------7-5-------------------
D|---------------------------------7-6-5-3/5------
A|----------------------------------------------5---
E|---------------------------------------------------

Song ends on a jam in Dm 

Just mess around with the solos to personalize them if u dont care if
they sound exactly like clapton.  if u want exact likeness play them 
like they are.





Comments


Popular Eric Clapton tabs & chords
In The Precence Of The Lord Bass Tabs
Lay Down Sally Bass Tabs
After Midnight Chords
I Want A Little Girl Chords
The Shape Youre In Chords
Layla 11 Tabs
Pretending 1 Tabs
Wonderful Tonight 4 Tabs
Layla Ukulele
Wonderful Tonight Ukulele


Song lyrics



↑ Back to top | Tablatures and chords are parodies/interpretations of the original songs. You may use it for private study, scholarship, research or language learning purposes only
© 2014 AZChords.com Contact us | Privacy policy | DMCA | Add/correct tabs | Request tabs | Top 50 tabs