>
 >
Layla Live

Layla Live Guitar Tabs

Eric Clapton - Layla Live chords, tabs, tablatures, lyrics

Guitar lessons | Add/correct | Request | Top 50 tabs Artists:  A B C D E F G H I J K L M N O P Q R S T U V W X Y Z 0-9

Layla Live Guitar Tabs – Eric Clapton

CD, Sheet music, Poster

Do you like Layla Live? Share with your friends now
ChordsTabsTabs v2Ukulele
--------------------------------
LAYLA SOLO - ERIC CLAPTON (LIVE)
--------------------------------

It's not 100%, it's OK though.

v=vibrato
13(15) = 13th fret bend till it sounds like 15th fret
h=hammer on
p=pull of
/=slide up
2:56 = time in the song





2:56
|---------------------12-13-12~--10-----------15(17)---13----------------|
|--13(15)----15-15~-----------------13-10~----------------15--13h15-15~--|
|------------------------------------------------------------------------|
|------------------------------------------------------------------------|
|------------------------------------------------------------------------|
|------------------------------------------------------------------------|

3:04
|--------15(17)--15(17)----13h15--13-15-15(17)-15-13----13-----|
|--13h15---------------------------------------------15----15--|
|--------------------------------------------------------------|
|--------------------------------------------------------------|
|--------------------------------------------------------------|
|--------------------------------------------------------------|

3:08                                           release
|--13h15-15(17)-15(17)--13-----15(17)--13-----15(17)r--13----|
|--------------------------15-------------15--------------15-|
|------------------------------------------------------------|
|------------------------------------------------------------|
|------------------------------------------------------------|
|------------------------------------------------------------|

3:12            release
|-----13h15-17-18(20)---17-15------------------|
|--15-------------------------18-15----18(20)--|
|-----------------------------------17---------|
|----------------------------------------------|
|----------------------------------------------|
|----------------------------------------------|

3:16                                   release
|--------15h17p15----15------------------------------|
|--15h18----------18----18p15----15---18(20)--15-15--|
|-----------------------------17---------------------|
|----------------------------------------------------|
|----------------------------------------------------|
|----------------------------------------------------|

3:20
|-------------|
|---------15--|
|--17(19)-----|
|-------------|
|-------------|
|-------------|x12


3:24
    release
|------------------------------------------------------------------------|
|--18(20)--15-15--15-18(21)--15-15--/15-15-15---13p10----10--------------|
|-----------------------------------------------------12----12p10--------|
|-----------------------------------------------------------------12-12--|
|------------------------------------------------------------------------|
|------------------------------------------------------------------------|

3:31
|---------------------13(15)---10----13(15)---10------------------|
|---------------------------------10-------------13p10----10-10~--|
|--10----12p10----10-----------------------------------12---------|
|-----12-------12-------------------------------------------------|
|-----------------------------------------------------------------|
|-----------------------------------------------------------------|

3:36           *not sure about this part, corrections?**********************
|-------10h13--15(17)p13-------15(17)p13-------15(17)p13-------15(17)-15(17)-|
|-10h13------------------15p13-----------15p13-----------15p13---------------|
|----------------------------------------------------------------------------|
|----------------------------------------------------------------------------|
|----------------------------------------------------------------------------|
|----------------------------------------------------------------------------|

3:41
|---------------------------------------------------------------------|
|---------------------------------------------------------------------|
|--/14-14-14--/14-14-14--/14-14-14--/14-14-14-12-10-------------------|
|--/14-14-14--/14-14-14--/14-14-14--/14-14-14-------12p10-12-12-12~---|
|---------------------------------------------------------------------|
|---------------------------------------------------------------------|

3:45
|--13(15)-13-12----10--------10h13p10----10---15(17)-15---12--------|
|---------------13-----10h13----------13---------------------13-10--|
|-------------------------------------------------------------------|
|-------------------------------------------------------------------|
|-------------------------------------------------------------------|
|-------------------------------------------------------------------|

3:52
|--------10h13p10----10--13(15)-13-12----10~--------10h13p10----10~-15(17)-15-|
|--10h13----------13------------------13------10h13----------13---------------|
|-----------------------------------------------------------------------------|
|-----------------------------------------------------------------------------|
|-----------------------------------------------------------------------------|
|-----------------------------------------------------------------------------|

3:58
|--12---------------------------|
|-----13------------------------|
|--------12-10-9-7-5------------|
|--------------------/7-5~------|
|-------------------------------|
|-------------------------------|




paul
:-)





Comments


Popular Eric Clapton tabs & chords
Im Tore Down Bass Tabs
Autumn Leaves Chords
Worried Life Blues Chords
Key To The Highway 1 Tabs
Knocking On Heavens Door Tabs
Layla Tabs
Someone Like Me Tabs
Tears In Heaven 6 Tabs
Behind The Mask Ukulele
In The Presence Of The Lord Ukulele


Song lyrics



↑ Back to top | Tablatures and chords are parodies/interpretations of the original songs. You may use it for private study, scholarship, research or language learning purposes only
© 2014 AZChords.com Contact us | Privacy policy | DMCA | Add/correct tabs | Request tabs | Top 50 tabs