» » »

In The Sunshine Of Your Love Tabs (ver.1)

Artists:  A B C D E F G H I J K L M N O P Q R S T U V W X Y Z # 

In The Sunshine Of Your Love Tabs (ver.1)

Eric Clapton
Rating:
0/5 (0 votes)
Tabs too difficult? Try these video lessons and learn fast.
                E|-----------------------------------|
B|-----------------------------------|
G|-----------------------------------|
D|-12-12-10-12-----------------------| 
A|--------------12-11-10----8v-------| 
E|-----------------------10----10----|  3X

Then

E|-----------------------------------|
B|-----------------------------------|
G|-12-12-10-12-----------------------|
D|--------------12-11-10-----8v------|
A|-----------------------10-----10---|
E|-----------------------------------|   2X   Then ^ another 3X

Ive neem Waiting so Long
E|-----------------------------------|
B|-----------------------------------|
G|-2-22---5--------------------------|
D|-2-22---5---5----------------------|
A|-0-00---3---5----------------------|
E|------------3----------------------|

Looooooooove
E|-----------------------------------|
B|-----------------------------------|
G|-2-2-2-2222------------------------|
D|-2-2-2-2222------------------------|
A|-0-0-0-0000------------------------|
E|-----------------------------------|
            
Tabs too difficult? Try these video lessons and learn fast.


comments powered by Disqus
↑ Back to top | Tablatures and chords are parodies/interpretations of the original songs. You may use it for private study, scholarship, research or language learning purposes only