>
 >
In The Precence Of The Lord

In The Precence Of The Lord Bass Tabs

Eric Clapton - In The Precence Of The Lord chords, tabs, tablatures, lyrics

Guitar lessons | Add/correct | Request | Top 50 tabs Artists:  A B C D E F G H I J K L M N O P Q R S T U V W X Y Z 0-9

In The Precence Of The Lord Bass Tabs – Eric Clapton

CD, Sheet music, Poster

Do you like In The Precence Of The Lord? Share with your friends now
Bass Tabs
In the precence of the lord
Eric Clapton

   |               |               |               |
|-----------------5---------------4---------------2---0------------|
|------------------------------------------------------------------|
|-3----------------------------------------------------------------|
|---------------------------------------------------------3--------|

   |               |               |               |
|-----------------5---------------4---------------2---0------------|
|------------------------------------------------------------------|
|-3----------------------------------------------------------------|
|---------------------------------------------------------3--------|

   |               |               |               |
|-----------------5-------------------------------2---0------------|
|---------------------------------2--------------------------------|
|-3----------------------------------------------------------------|
|---------------------------------------------------------3--------|

   |               |               |               |
|-----------------5---------------4---------------2---0------------|
|------------------------------------------------------------------|
|-3----------------------------------------------------------------|
|---------------------------------------------------------3--------|

   |               |               |               |
|------------------------------------------------------------------|
|-----------------------------------------------------0-------0----|
|-3-------------------------------------------------------2--------|
|-----------------------------3---3--------------------------------|

   |               |               |               |
|-------------------------2----------------------------------------|
|---------------------2-------------------2------------------------|
|-0-----------------------------------0---------------0------------|
|---------------------------------------------------------3--------|

   |               |               |               |
|------------------------------------------------------------------|
|---------------------------------3-------3------------------------|
|-----------------------------3-----------------------0---2---3----|
|-1----------------------------------------------------------------|

   |               |               |               |
|-----------------5---------------4---------------2---0------------|
|------------------------------------------------------------------|
|-3----------------------------------------------------------------|
|---------------------------------------------------------3--------|

   |               |               |               |
|---------------------------------0--------------------------------|
|-----------------------------2-----------------------0------------|
|-3-------------------------------------------------------2--------|
|-----------------------------------------3------------------------|

   |               |               |               |
|-------------------------2----------------------------------------|
|---------------------2-------------------2------------------------|
|-0-----------------------------------0---------------3---0--------|
|------------------------------------------------------------------|

   |               |               |               |
|------------------------------------------------------------------|
|-0-------------------------------------------------------0--------|
|-------------------------------------0---------------0------------|
|-----------------------------------------2------------------------|

   |               |               |               |
|------------------------------------------------------------------|
|------------------------------------------------------------------|
|---------------------------------------------------------0--------|
|-3---------------3---------------3-------0-------3----------------|

   |               |               |               |
|------------------------------------------------------------------|
|------------------------------------------------------------------|
|---------------------------------0-------0-----------0---3--------|
|-----------------------------0------------------------------------|

   |               |               |               |
|-------------------------------------------------0----------------|
|---------------------------------3-------2------------------------|
|---------------------0---3-------------------------------0--------|
|-1-------1--------------------------------------------------------|

   |               |               |               |
|------------------------------------------------------------------|
|-----------------------------------------------------2------------|
|---------------------------------0-------0---------------3--------|
|---------------------0---3----------------------------------------|

   |               |               |               |
|---------------------2-------0------------------------------------|
|-0-----------------------4-----------0----------------------------|
|-------------------------------------------------0-------2--------|
|-----------------------------------------3------------------------|

   |               |               |               |
|------------------------------------------------------------------|
|-----------------------------------------------------0------------|
|-3-------------------3-----------------------------------2--------|
|-------------------------0-------3--------------------------------|

   |               |               |               |
|-------------------------2----------------------------------------|
|---------------------2---------------2----------------------------|
|-0---------------------------------------0-----------0------------|
|---------------------------------------------------------3--------|

   |               |               |               |
|---------------------------------0-------0------------------------|
|-------------------------3----------------------------------------|
|---------------------3-----------------------------------0--------|
|-1---------------------------------------------------3------------|

   |               |               |               |
|-----------------5---------------4---------------2-----------0----|
|------------------------------------------------------------------|
|-3-----------3---------------3------------------------------------|
|------------------------------------------------------------------|

   |               |               |               |
|-----------------5---------------4---------------2---0------------|
|------------------------------------------------------------------|
|-3---------------------------3---------------3--------------------|
|---------------------------------------------------------3--------|

   |               |               |               |
|------------------------------------------------------------------|
|-----------------------------------------------------0------------|
|-3-------------------3-----------------------------------2--------|
|-------------------------0-------3--------------------------------|

   |               |               |               |
|-------------------------2----------------------------------------|
|---------------------2-------------------2------------------------|
|-0-----------------------------------0---------------0------------|
|---------------------------------------------------------3--------|

   |               |               |               |
|------------------------------------------------------------------|
|---------------------------------3-------3------------------------|
|-----------------------------3-----------------------0---2---2----|
|-1----------------------------------------------------------------|

   |               |               |               |
|-----------------5---------------4---------------2---0------------|
|------------------------------------------------------------------|
|-3-----------3----------------------------------------------------|
|---------------------------------------------------------3--------|

   |               |               |               |
|---------------------------------0--------------------------------|
|-----------------------------2-----------------------0------------|
|-3-------------------------------------------------------2--------|
|------------------------------------------------------------------|

   |               |               |               |
|------------------------------------------------------------------|
|-----------------------------------------2------------------------|
|-0-----------------------------------------------3---0------------|
|---------------------------------------------------------3--------|

   |               |               |               |
|---------------------4-------2------------------------------------|
|-0-----------------------------------0-------------------0--------|
|-----------------------------------------0------------------------|
|-------------------------------------------------2---2------------|

   |               |               |               |
|---------------------------------0---------------0----------------|
|-------------------------0---0-----------2------------------------|
|---------------------2-----------------------------------0--------|
|-3----------------------------------------------------------------|

   |               |               |               |
|-------------------------0---0---2--------------------------------|
|---------------------2---------------2----------------------------|
|-----------------------------------------3-------0----------------|
|---------------------------------------------------------3--------|

   |               |               |               |
|-------------------------------------------------0----------------|
|---------------------------------3-------2------------------------|
|---------------------0---3---3---------------------------0--------|
|-1----------------------------------------------------------------|

   |               |               |               |
|-----------------------------2------------------------------------|
|---------------------0---2---------------------------2------------|
|---------------------------------------------------------3--------|
|------------------------------------------------------------------|

   |               |               |               |
|---------------------2-----------0--------------------------------|
|-0---------------------------4-------0----------------------------|
|-------------------------------------------------0-------2--------|
|-----------------------------------------3------------------------|

   |               |               |               |
|------------------------------------------------------------------|
|-----------------------------------------------------0-------0----|
|-3-------------------------------------------------------2--------|
|-----------------------------3---3--------------------------------|

   |               |               |               |
|-------------------------2---2------------------------------------|
|-------------0---2-----------------------2---2--------------------|
|-0---------------------------------------------------0------------|
|---------------------------------------------------------3--------|

   |               |               |               |
|------------------------------------------------------------------|
|------------------------------------------------------------------|
|-----------------------------------------------------0---2--------|
|-1---------------------------1---3-------3---3---3----------------|

   |               |               |               |
|-----------------5---------------4---------------2---0------------|
|------------------------------------------------------------------|
|-3-----------3---------------3------------------------------------|
|---------------------------------------------------------3--------|

   |               |               |               |
|-----------------5---------------4---------------2---0------------|
|------------------------------------------------------------------|
|-3-----------3---------------3------------------------------------|
|---------------------------------------------------------3--------|

   |               |               |               |
|------------------------------------------------------------------|
|------------------------------------------------------------------|
|-0----------------------------------------------------------------|
|------------------------------------------------------------------|

   |               |               |               |
||-----------------------------------------------------------------|
|*--------------------------------0---------------0-------2--------|
|*--------0---------------3----------------------------------------|
||3----------------------------------------------------------------|

   |               |               |               |
|---------0-------2-----------------------------------------------||
|-----------------------------------------------------------------*|
|---------------------------------0-------------------------------*|
|-----------------------------------------------------------------||

   |               |               |               |
|------------------------------------------------------------------|
|---------------------------------0---------------0-------2--------|
|---------0---------------3----------------------------------------|
|-3----------------------------------------------------------------|

   |               |               |               |
|---------0-------2------------------------------------------------|
|------------------------------------------------------------------|
|---------------------------------0-------0------------------------|
|------------------------------------------------------------------|

   |               |               |               |
||-----------------------------------------------------------------|
|*--------------------------------0---------------0-------2--------|
|*--------0---------------3----------------------------------------|
||3----------------------------------------------------------------|

 >3|               |               |               |
|---------0-------2-----------------------------------------------||
|-----------------------------------------------------------------*|
|---------------------------------0-------0-----------------------*|
|-----------------------------0-----------------------------------||

   |               |               |               |
|---------------------------------0---------------0-------2--------|
|---------0---------------3----------------------------------------|
|-3----------------------------------------------------------------|
|------------------------------------------------------------------|

   |               |               |               |
|---------5-------7------------------------------------------------|
|---------------------------------0-------0------------------------|
|-----------------------------0-----------------------0---3---4----|
|------------------------------------------------------------------|

   |               |               |               |
|---------------------------------0---------------0-------2--------|
|-0-------0---------------3----------------------------------------|
|------------------------------------------------------------------|
|------------------------------------------------------------------|

   |               |               |               |
|---------5-------7------------------------------------------------|
|---------------------------------0-------0-----------0---1--------|
|-----------------------------0------------------------------------|
|------------------------------------------------------------------|

   |               |               |               |
|-------------------------0-------2---------------2-------4--------|
|-2-------2--------------------------------------------------------|
|------------------------------------------------------------------|
|------------------------------------------------------------------|

   |               |               |               |
|---------7-------9------------------------------------------------|
|-----------------------------2---2-------2-----------2---2--------|
|------------------------------------------------------------------|
|------------------------------------------------------------------|

   |               |               |               |
|-------------------------0-------2---------------2-------4--------|
|-2-------2--------------------------------------------------------|
|------------------------------------------------------------------|
|------------------------------------------------------------------|

   |               |               |               |
|---------7-------9-----------------------------------4------------|
|-----------------------------2---2-------2---------------2--------|
|------------------------------------------------------------------|
|------------------------------------------------------------------|

   |               |               |               |
|------------------------------------------------------------------|
|-0----------------------------------------------------------------|
|---------------------------------------------------------3--------|
|------------------------------------------------------------------|

   |               |               |               |
|------------------------------------------------------------------|
|------------------------------------------------------------------|
|---------------------------------------------------------1--------|
|------------------------------------------------------------------|

   |               |               |               |
|------------------------------------------------------------------|
|------------------------------------------------------------------|
|------------------------------------------------------------------|
|---------------------------------------------------------3--------|

   |               |               |               |
|------------------------------------------------------------------|
|------------------------------------------------------------------|
|------------------------------------------------------------------|
|------------------------------------------------------------------|

   |               |               |               |
|-----------------5---------------4---------------2---0------------|
|------------------------------------------------------------------|
|-3----------------------------------------------------------------|
|-------------------------------------------------------------3----|

   |               |               |               |
|-----------------5---------------4---------------2-----------0----|
|------------------------------------------------------------------|
|-3----------------------------------------------------------------|
|------------------------------------------------------------------|

   |               |               |               |
|------------------------------------------------------------------|
|-----------------------------------------------------0------------|
|-3-------------------------------------------------------2--------|
|-----------------------------0---3--------------------------------|

   |               |               |               |
|-------------------------2---2------------------------------------|
|---------------------2-------------------2---2--------------------|
|-0-----------------------------------0---------------0------------|
|---------------------------------------------------------3--------|

   |               |               |               |
|------------------------------------------------------------------|
|---------------------------------3-------3------------------------|
|-----------------------------3-----------------------0---1---2----|
|-1----------------------------------------------------------------|

   |               |               |               |
|-----------------5---------------4---0----------------------------|
|-----------------------------------------2-------3----------------|
|-3-------2---3---------------3-----------------------3---2---2----|
|------------------------------------------------------------------|

   |               |               |               |
|-----------------------------------------0---0--------------------|
|-----------------------------------------------------0------------|
|-3-------------------------------------------------------2--------|
|-----------------------------0---3--------------------------------|

   |               |               |               |
|-------------------------2---2------------------------------------|
|-------------0---2-----------------------2------------------------|
|-0-----------------------------------0---------------3---0--------|
|------------------------------------------------------------------|

   |               |               |               |
|-------------------------2---2-------2----------------------------|
|-0-------0---0---0---------------------------0--------------------|
|-----------------------------------------------------0------------|
|---------------------------------------------------------2--------|

   |               |               |               |
|---------------------------------0---------------0----------------|
|-------------------------0---------------2------------------------|
|---------------------2-----------------------------------0--------|
|-3----------------------------------------------------------------|

   |               |               |               |
|------------------------------------------------------------------|
|-------------------------------------2----------------------------|
|-----------------------------------------3---2---0----------------|
|---------------------------------------------------------3--------|

   |               |               |               |
|-------------------------------------------------0----------------|
|-------------------------3---3-----------2------------------------|
|-------------0---3-------------------3-------------------0--------|
|-1----------------------------------------------------------------|

   |               |               |               |
|-----------------2---0---2---2------------------------------------|
|---------------------------------2---0---2------------------------|
|-------------------------------------------------0-------0--------|
|-----------------------------------------------------3------------|

   |               |               |               |
|---------------------2-------0------------------------------------|
|-0-----------------------4-----------0----------------------------|
|-------------------------------------------------0-------2--------|
|-----------------------------------------3------------------------|

   |               |               |               |
|------------------------------------------------------------------|
|-----------------------------------------------------0------------|
|-3-------------------------------------------------------2--------|
|-----------------------------0---3--------------------------------|

   |               |               |               |
|-----------------2---0---2----------------------------------------|
|-------------------------------------2----------------------------|
|-0---------------------------------------0-----------0------------|
|---------------------------------------------------------3--------|

   |               |               |               |
|------------------------------------------------------------------|
|------------------------------------------------------------------|
|-----------------------------------------------------0---2--------|
|-1---------------------------2---3-------3---3--------------------|

   |               |               |               |
|-----------------5---------------4---------------2---0------------|
|------------------------------------------------------------------|
|-3-----------3---------------3------------------------------------|
|---------------------------------------------------------3--------|

   |               |               |               |
|-------------0---5-----------0---5-----------0-1-2---0------------|
|------------------------------------------------------------------|
|-3----------------------------------------------------------------|
|-------------------------------------------------------------3----|

   |               |               |               |
|-----------------5---------------5---------------2-------0--------|
|------------------------------------------------------------------|
|-3-----------3---------------3---------------3--------------------|
|------------------------------------------------------------------|

   |               |               |               |
|------------------------------------------------------------------|
|------------------------------------------------------------------|
|-3----------------------------------------------------------------|
|------------------------------------------------------------------|





Comments


Popular Eric Clapton tabs & chords
Blue Eyes Blues 1 Chords
Golden Ring Chords
Layla 5 Chords
Tulsa Time Chords
Cocaine 1 Tabs
Motherless Child 1 Tabs
Somewhere Over The Rainbow Live Tabs
Wanna Make Love To You Tabs
Keep On Growing Ukulele
Watch Out For Lucy Ukulele


Song lyrics



↑ Back to top | Tablatures and chords are parodies/interpretations of the original songs. You may use it for private study, scholarship, research or language learning purposes only
© 2014 AZChords.com Contact us | Privacy policy | DMCA | Add/correct tabs | Request tabs | Top 50 tabs