» » »

Eric Clapton, Hey Hey Tabs (ver.4)

Artists:  A B C D E F G H I J K L M N O P Q R S T U V W X Y Z # 

Hey Hey Tabs (ver.4)

Eric Clapton Tabs
 Rating:
4/5 (4 votes)
Hey Hey lessons Tabs too difficult? Try these video lessons and learn fast
1
                
After looking at the tabs here, i felt that they didnt sound quite right, and learned it 
I'm pretty sure this is right.
Start playing it slowly, and listen to it carefully to get the bass notes + rythm 'cos 
you learn the rythm wrong, it's really hard to right it.
Please rate/comment if you use this!


Tuning: Standard (E A D G B e)


Intro/Main Riff:
e|-------3br-0---|-9---9-----0-|
B|-------3br-0---|-8---8---8-0-|
G|---------------|-------------|
D|---------------|-------------|
A|-2/7-----------|---0---0---0-|
E|-----0-0---0-0-|-------------|

e|-----3br-0-----|-9---9-----0-|
B|-----3br-0-----|-8---8---8-0-|
G|---------------|-------------|
D|---------------|-------------|
A|-2/7-----------|-------------|
E|-----0-0---0-0-|---0---0---0-|

e|--------3--2--0----|-3-----3-----0--2--0-|
B|------2-2--2--0----|-2-----2-----0--2--0-|
G|-------------------|---------------------|
D|-------------------|---------------------|
A|-7\-0---0--0-----0-|---------------------|
E|-------------------|----0-----0-----0----|

e|-----3br-0-----|-9---9-----0-|
B|-----3br-0-----|-8---8---8-0-|
G|---------------|-------------|
D|---------------|-------------|
A|-2/7-----------|-------------|
E|-----0-0---0-0-|---0---0---0-|

e|---------5-----7--5----3p2p0---2--0-|
B|------4-----4--------2--------------|
G|------------------------------------|
D|-2/4--------------------------------|
A|------------------------------------|
E|------------------------------------|

e|---------2/4-----0-----2p0------0-------0-|
B|------0-------0-----0-------h2----------0-|
G|-0h1-------------------------------0h1----|
D|------------------------------------------|
A|------------------------------------------|
E|------------------------------------------|


Verse:
e|-------|
B|-------|
G|-------|
D|-----2-|  x8
A|-----2-|
E|--0----|

e|---------------------------------0----|
B|----2/3--3-----3-----3-----0--3-------|
G|----1----1-----1-----1--------1-------|
D|--------------------------------------|
A|--------------------------------------|
E|-0--0----0--0-----0-----0-----0-----0-|

e|-------|
B|-------|
G|-----2-|  x8
D|-----2-|
A|--0----|
E|-------|

e|---------------------------------0----|
B|----2/3--3-----3-----3-----0--3-------|
G|----1----1-----1-----1--------1-------|
D|--------------------------------------|
A|--------------------------------------|
E|-0--0----0--0-----0-----0-----0-----0-|

e|-------|
B|-------|
G|----4--|  x4
D|----4--|
A|-2-----|
E|-------|

e|-------|
B|-------|
G|-----2-|  x4
D|-----2-|
A|--0----|
E|-------|

e|---------2/4-----0-----2p0------0-------0-|
B|------0-------0-----0-------h2----------0-|
G|-0h1-------------------------------0h1----|
D|------------------------------------------|
A|------------------------------------------|
E|------------------------------------------|

Now go back to the start and repeat as necessary.

At the very end:
e|--0--0--0--0--0-|--0------------------------|
B|--0--2--0--2--0-|--3~~~~~-------------------|
G|--1--1--1--1--1-|--1------------------------|
D|-----1----------|---------------------------|
A|----------------|------2h(with right hand)5-|
E|--0--0--------0-|--0------------------------|


| /  slide up
| \  slide down
| h  hammer-on
| p  pull-off
| ~  vibrato
| x  Mute note
| b  Bend
| r  Release

And thats it!
            
Submit corrections

comments powered by Disqus
↑ Back to top | Eric Clapton Tabs for Hey Hey. Lyrics for acoustic guitar and electric guitar. 1 Tablatures and chords are parodies/interpretations of the original songs. You may use it for private study, scholarship, research or language learning purposes only