» » »

Hey Hey Tabs (ver.1)

Artists:  A B C D E F G H I J K L M N O P Q R S T U V W X Y Z # 

Hey Hey Tabs (ver.1)

Eric Clapton
Rating:
0/5 (0 votes)

Hard to play? Try these video lessons and learn fast.
                e------------0--9-9----0-----0------
b---------8--0--8-8--8----0---------
g---------7-------------------------
d-----------------------------------		x2
a-2/7-------------------------------
e-----0-----------------------------

e-----3-32-p0------------------------
b-----2-22-p0------------------------
g-----2-22-p0------------------------		x2	
d------------------------------------
a--0---------------------------------
e------------------------------------

e----------------0---9--9----0----0--
b-------------8--0---8--8--8---0-----
g-------------7----------------------
d------------------------------------
a---2/7------------------------------
e--------0---------------------------

e----------5--7------0h3-0h2-0-------
b------4---4--4--4\2-----------------
g------4---------4\2-----------------
d------4---------4\2-----------------
a------------------------------------
e--2/4-------------------------------

e----4----0----2h0---0------0--------
b--0---0----0------2--------0--------
g-----------------------0h1----------
d-----------------------2------------
a------------------------------------
e------------------------------------
            
Hard to play? Try these video lessons and learn fast. | Correct




comments powered by Disqus
↑ Back to top | Tablatures and chords are parodies/interpretations of the original songs. You may use it for private study, scholarship, research or language learning purposes only