» » »

Crossroads Bass tabs (ver.1)

Artists:  A B C D E F G H I J K L M N O P Q R S T U V W X Y Z # 

Crossroads Bass tabs (ver.1)

Eric Clapton
Rating:
0/5 (0 votes)

Hard to play? Try these video lessons and learn fast.
                ******************
*Tab by FLX      *
******************

The song consists of these 3 parts. It's easy to hear which part you have to 
play. It's about this order:

P1  P1  P1(only the first half and then P2)  P1  P2P2  P1  P3


Part 1:

g|----------------------------------------|
d|-7-7-5-7r-5-7-----7-7-5-7r-5-7----------|
A|--------------7-0--------------7-0------|
E|----------------------------------------|



Part 2:

g|-7-7-5-7r-5-7---------------------------|
d|--------------7-------------------------|
A|----------------5-----------------------|
E|----------------------------------------|



Part 3:

g|-------9---9----------------------------|
d|---------------7-9----------------------|
A|-5-6-7---7---7-----9-9-10-9-8-7-5-------|
E|----------------------------------------|



Outro:

g|-------9---9-----------------------------------|
d|---------------7-9-------7-7-7-5-5-5-5---------|
A|-5-6-7---7---7-------------------------7-6-5-0-|
E|-----------------------------------------------|
            
Hard to play? Try these video lessons and learn fast. | Correct




comments powered by Disqus
↑ Back to top | Tablatures and chords are parodies/interpretations of the original songs. You may use it for private study, scholarship, research or language learning purposes only