>
 >
Classical Gas 4

Classical Gas 4 Guitar Tabs

Eric Clapton - Classical Gas 4 chords, tabs, tablatures, lyrics

Guitar lessons | Add/correct | Request | Top 50 tabs Artists:  A B C D E F G H I J K L M N O P Q R S T U V W X Y Z 0-9

Classical Gas 4 Guitar Tabs – Eric Clapton

CD, Sheet music, Poster

Do you like Classical Gas 4? Share with your friends now
TabsTabs v2Tabs v3Tabs v4
Classical Gas Guitar Solo By Eric Clapton
Tuning: Standard

This tab may look confusing at first, but if u take the time to 
pause and take a good look at it, its not really all that hard.

e|--------------------------------------------|
B|1---1------0-------0------------------------|
G|--2-------0-------0--2-0----0---------------|
D|---------0-------2---------2----------------|
A|0-------------------------2-----------------|
E|------3------2-0----------------------------|

e|--------------------------------------------|
B|---0h1--0h1-------0-------0--------0--------|
G|--2----2----2----0-------0--2-0-0h2---0-----|
D|----------------0-------2------------2------|
A|0-----------------------------------2-------|
E|--------------3-----2-0---------------------|

e|--------------0-----------------------------|
B|---0---1----3------3---1-3---1-0------------|
G|--0---2---0-----0------2---2----------------|
D|--------------------------------------------|
A|----0---2-----3-----------------------------|
E|3-------------------------------------------|

e|--------------------------------------------|
B|0h1-0-1-0--------0------0-------------------|
G|---2-------0--0-0-2-0-2---2--2--2-----------|x4
D|-------2--0--0--------------2--2--2---------|
A|0--------------------------0--0--0----------|
E|---------3--2--0-0-------0------------------|

e|---------------0----------------------------|
B|---0--0-1--1--3--3-1-3-1-0--------------0--0|
G|--2--0----2--0--0--2-------2-0-2-2-0-2-2--0-|
D|-2--------------------2--------2------2-----|
A|0--------0--2--3---------------------0------|
E|----3----------------------1---0---------3--|

e|--------0--2---3--4-5-7-8-7-----------------|
B|-1--1--3-1--1---0--0-0-0----10-7-10---------|
G|---2--0---0--2---0-------------8--9---------|
D|-----------0--------------------------------|
A|--0--2--3---------------0-----0-0-----------|
E|---------------3--0-------------------------|

e|---------5---8-7-------------5--8-7---------|
B|-7-10-7---5------10-7-10-7-7--7-----10-7-10-|
G|-7----7---5------------9-7-8--7--------8--9-|
D|--0----0--------------------0---------------|
A|0----------0-0-------0--0------0------0-0--0|
E|--------------------------------------------|

e|--8-----3---------1-----0-0-0-0-----0-------|
B|7-10108-3----5----1---3-3-3-3-3----3-3---3p0|
G|7-----9------5----2---3-2-2-2-2---2---2-2---|
D|-0-----------5-0------3----------3-----3----|
A|-------0---3-----1---1-0-0-0-0--0-----------|
E|---------3------1---1-----------------------|

e|--------------------------------------------|
B|0p1----3--1--0---0p1---0---------0h1---0--1-|
G|---2--2---------------2---2--0--------2-----|
D|-----2---2--2--2-----2---2--2--2-----2---2--|
A|0---0---0--0--0--0--0---0--0--0--0--0---0---|
E|--------------------------------------------|

e|--------------------------------------------|
B|--3---5-5-3-3-1-1-0---0--0-1-0--------------|
G|-------5---4---2----0---2------slight pause-|
D|-2--2---------------------------------------|
A|0--0--0---0---0---0-----0-------------------|
E|--------------------------------------------|

e|0--0------------1p0-0-0----------------1p0--|
B|--3-1-0--1-0--3----3-3-1----1-0-----3-------|
G|-0------0----0-0-----------2------0--0------|
D|--------------------------------------------|
A|3------3----2-2-2---0-----0-----------------|
E|---------------------------------3--3--3----|

e|-0-0-------------1p0-0-0--------------------|
B|3-3-1-0---1-0--3----3-3-1---1-0--------0----|
G|---------0----0-0----------2-----0--0-0-202-|
D|--------------------------------0--0--------|
A|-3------3----2-2-2---0----0-----------------|
E|-------------------------------3--2--0-0----|


e|------------0-1-2-3-4-5-7-8-7---------------|
B|0-----0-1-3--------0-0-0-0---10-7-10-7-10-7-|
G|--2-2--0-0-0-0-2-2--------------8--9-7----7-|
D|-----2----------0--------------------------0|
A|----0---0-2-3-------------0------0--0-------|
E|-0----3-------1---3-0-0-0-------------------|

e|-5---8-7-------------5--8-7-----------8-----|
B|--5------10-7-10-7-7--7-----10-7-10-7-10-10-|
G|--5------------9-7-8--7--------8--9-7-------|
D|--------------------0-----------------------|
A|---0-0-------0--0------00-----0-0--0--------|
E|--------------------------------------------|

e|--3---------1-----0-0-0-0----0--------------|
B|8-3----5----1---3-3-3-3-3----3--------------|
G|9------5----2---3-2-2-2-2---22--pause-------|
D|-------5-0------3----------3-3--------------|
A|-0---3-----1---1-0-0-0-0--0--0--------------|
E|---3------1---1-----------------------------|


e|--------------------------------------------|
B|0h1-0-1-0--------0------0-------------------|
G|---2-------0--0-0-2-0-2---2--2--2-----------|x2
D|-------2--0--0--------------2--2--2---------|
A|0--------------------------0--0--0----------|
E|---------3--2--0-0-------0------------------|

e|---------------0----------------------------|
B|---0--0-1--1--3--3-1-3-1-0------------------|
G|--2--0----2--0--0--2-------2-0-2-2-0-2------|
D|-2--------------------2--------2------2-----|
A|0--------0--2--3---------------------0------|
E|----3----------------------1---0------------|

e|------0-1-2-3-4-5-7-5-------3---1---------0-|
B|0-1-3--------0-0-0-----7----3---1--3-----3-3|
G|-0-0-0-0-2-2-----------7----4---2--3----2---|
D|----------0------------7-0---0-----3-0-3----|
A|--0-2-3---------------5----3---1--1---0-----|
E|3-------1---3-0-0----5----3---1--1----------|

e|----------0---------------------------------|
B|---3-----3-3---3---2p0h2--------------------|
G|2-2-2---2---2-2-2--2------------------------|
D|-3-----4-----4-----2------------------------|
A|------0-----------0-------------------------|
E|--------------------------------------------|





Comments


Popular Eric Clapton tabs & chords
Change The World 2 Chords
Please Be With Me Chords
Wonderful Tonight 5 Chords
Bad Love 5 Tabs
Crossroads 3 Tabs
If I Had Possession Over Judgement Day 1 Tabs
Lay Down Sally 1 Tabs
Motherless Child Tabs
Run Back To Your Side Intro Tabs
White Room Tabs


Song lyrics



↑ Back to top | Tablatures and chords are parodies/interpretations of the original songs. You may use it for private study, scholarship, research or language learning purposes only
© 2014 AZChords.com Contact us | Privacy policy | DMCA | Add/correct tabs | Request tabs | Top 50 tabs