>
 >
Blues Power

Blues Power Guitar Tabs

Eric Clapton - Blues Power chords, tabs, tablatures, lyrics

Guitar lessons | Add/correct | Request | Top 50 tabs Artists:  A B C D E F G H I J K L M N O P Q R S T U V W X Y Z 0-9

Blues Power Guitar Tabs – Eric Clapton

CD, Sheet music, Poster

Do you like Blues Power? Share with your friends now
ChordsTabsUkulele
                                            Blues Power
                                            Eric Clapton

Intro:
|-------5p3p0---0---------|------------8-11b13-|-8p7-5-----------|---------5/7-----|
|-----5-------3---3---3---|---------10---------|-------8-5h7-----|-----5-8-7/8---8-|
|-2h5---------------5---2-|------10------------|-------------7---|-4-7-----------7-|
|-------------------------|-7-10---------------|---------------7-|-5---------------|
|-------------------------|--------------------|-----------------|-----------------|
|-------------------------|--------------------|-----------------|-----------------|

       C                                           F
(From "Bet you didn't think I knew how to Rock and Roll")
|-0-------------------------------------------------------------------|
|-1-------------------13-13-13-------13-------13-------13-15p13----13-|
|-0-------------10/14-14-14-14-12/14----12/14----12/14----------14----|
|-2-------------------------------------------------------------------|
|-3-------------------------------------------------------------------|
|---------------------------------------------------------------------|

                                                          C
(From "Lord I got the boogie-woogie right down in my very soul")
|-------8------------------|
|-----8---8-11b13--13--13\-|
|-8h9----------------------|
|--------------------------|
|--------------------------|
|--------------------------|

                                              D      B7
(From "There ain't no need for me to be a wallflower")
|---------10-12b14---14b12p10----|
|------10---------------------12-|
|-9/11---------------------------|
|--------------------------------|
|--------------------------------|
|--------------------------------|

                                      C
(From "'Cause  now 'm living on blues power")

1st Guitar Solo:
|-14\--------------8--------------8-------------------------15-15-15-15-15-15p13----15-15--|
|-15\---11h13-13-----11-8-----------------------------------15-15-15-15-15-15----16--------|
|-------------------------8----------------------------------------------------------------|
|---------------------------10b12----12b10p8-------------8---------------------------------|
|--------------------------------------------10---10--10-----------------------------------|
|------------------------------------------------------------------------------------------|

|-15p13-11-13---13b15-13-11----13-11--------13-----13--------------11----------------|
|---------------------------13-------13-----13b15--13b15b13-11-----13b15--13--11-----|
|--------------------------------------------------------------12-----------------12-|
|------------------------------------------------------------------------------------|
|------------------------------------------------------------------------------------|
|------------------------------------------------------------------------------------|

(From "I knew all the time but now I'm gonna let you know")
|-----------------------------------------15-------------|
|-------13----13----15b17b15-13----15b17-----17b15-13-13-|
|-/14------14--------------------------------------------|
|--------------------------------------------------------|
|--------------------------------------------------------|
|--------------------------------------------------------|

(From "I'm gonna keep rockin' no matter if it's fast or slow")
|-------15---13---12---10/12-|
|-13/17-17---15---13---12/13-|
|----------------------------|
|----------------------------|
|----------------------------|
|----------------------------|

(From "Ain't gonna stop 'til the 25th hour")
|-12b14--12b14--12b14b12-10-----10h12-10-------|
|---------------------------12-------------12\-|
|----------------------------------------------|
|----------------------------------------------|
|----------------------------------------------|
|----------------------------------------------|

(From "'Cause now I'm livin' on Blues Power")

2nd Guitar Solo:
|-14\------------------------------------------------------------------------------15b17--17b15-13-|
|-15\---------13-15--13b15---15b13-10---------------------------------13--13-15p13-----------------|
|-------11h14---------------------------14b12-10---12p10------7-/-14-------------------------------|
|--------------------------------------------------------12----------------------------------------|
|--------------------------------------------------------------------------------------------------|
|--------------------------------------------------------------------------------------------------|

|--------13b15---------14-14-14\12-----10-----8--7----------------------------------------|
|----------------------15-15-15\14--12-----10----8----15-----15---------------------------|
|-/11-14---------11-14--------------------------------14b16--14b16---12----12----12-14b16-|
|-----------------------------------------------------------------------12----15----------|
|-----------------------------------------------------------------------------------------|
|-----------------------------------------------------------------------------------------|

(From "Bet you didn't think I knew how the Rock and Roll")
|----------------------------------------------------|
|-15b16--15b16--15b16--15b16--15b16b15-13----13---15-|
|-----------------------------------------14---------|
|----------------------------------------------------|
|----------------------------------------------------|
|----------------------------------------------------|

(From "Lord I got the boogie-woogie right down in my very soul")
|--------------------------------|
|-------11-13-----11-13----------|
|-10/12--------12-------12-10----|
|-----------------------------13-|
|--------------------------------|
|--------------------------------|

(From "There ain't no need for me to be a wallflower")
|--------------------------------|
|-13b15-15---10------------------|
|---------------12b14------------|
|-----------------------12-10-9--|
|--------------------------------|
|--------------------------------|

(From "'Cause now I'm livin' on Blues Power")

3rd Guitar Solo:
|-15\-----------------------------11----------11---13b15---15b13p11-13-----13b15-15-15b13p11-13----|
|-16\--11h13-13--13--13--13-11-13----13-11-13--------------------------13-----------------------13-|
|--------------------------------------------------------------------------------------------------|
|--------------------------------------------------------------------------------------------------|
|--------------------------------------------------------------------------------------------------|
|--------------------------------------------------------------------------------------------------|

|-13b15--11---------------15b13p11----------11--11-12-13-11-12-13-13b15-13-11h13----|
|------------13--13-11-------------13-11h13--------------------------------------13-|
|-----------------------------------------------------------------------------------|
|-----------------------------------------------------------------------------------|
|-----------------------------------------------------------------------------------|
|-----------------------------------------------------------------------------------|

|-11-------------------8--------------------8-------8-------------------------------|
|----13-----------------------------------------------------------------11b13-11b13-|
|-------12-10-8-10b12-------10b12-12--10b12---10b12----12b10p8--12b10p8-------------|
|-----------------------------------------------------------------------------------|
|-----------------------------------------------------------------------------------|
|-----------------------------------------------------------------------------------|

|-----------------------------------------------------------------------------11/15---11/15-|
|-13-11---------------------------------11----11--------------------------------------------|
|-------12-10---------------------------12b10-11b10-----------------------------------------|
|-------------13-10----10-10----10-13---------------13-10----10--10--10--10-----------------|
|-------------------13-------13---------------------------13--------------------------------|
|-------------------------------------------------------------------------------------------|

|----11--------11-------11b13------------------------11------8-11p8----8-11p8----11p8----8-8-11b13-|
|-13----13-13-----13-11--------11-13-13-13--13-11-13----13----------11--------11------11-----------|
|--------------------------------------------------------------------------------------------------|
|--------------------------------------------------------------------------------------------------|
|--------------------------------------------------------------------------------------------------|
|--------------------------------------------------------------------------------------------------|

|-13---8-11----8-10-8----8h10p8----8--8\---15\---------13-15----13-15--------------11-------11-|
|-----------11--------11--------11---------16\---13-16-------16---------16-13-13------13-13----|
|-------------------------------------------------------------------------------------12-12----|
|----------------------------------------------------------------------------------------------|
|----------------------------------------------------------------------------------------------|
|----------------------------------------------------------------------------------------------|

|-11----------------------------------------------------------------------------|
|----13-11\8---------------------11-------11----------/11--13-13-13-11-13-13-13-|
|---------------10b12--12--10b12----10b12----10p8-------------------------------|
|------------10-----------------------------------10----------------------------|
|-------------------------------------------------------------------------------|
|-------------------------------------------------------------------------------|
                                                                    Fade Away





Comments


Popular Eric Clapton tabs & chords
For Your Love Chords
Tears In Heaven 4 Chords
Blue Eyes Blues 1 Tabs
I'm Tore Down Tabs
Knockin' On Heaven's Door Tabs
Let It Rain 3 Tabs
Lonely Stranger 2 Tabs
Worried Life Blues Intro Tabs
Forever Man Ukulele
Modern Girl Ukulele


Song lyrics



↑ Back to top | Tablatures and chords are parodies/interpretations of the original songs. You may use it for private study, scholarship, research or language learning purposes only
© 2014 AZChords.com Contact us | Privacy policy | DMCA | Add/correct tabs | Request tabs | Top 50 tabs