» » »

Bad Love Tabs (ver.5)

Artists:  A B C D E F G H I J K L M N O P Q R S T U V W X Y Z # 

Bad Love Tabs (ver.5)

Eric Clapton
Rating:
0/5 (0 votes)

Hard to play? Try these video lessons and learn fast.
                Eric Clapton/Bad Love/Unplugged

Symbols:            |  Bm  E   A   Bb  C   Am  Dm  G   Gm   Gsus  D
/ slide up          |--2---0---0---1---0---0---1---3---3-----3----2--|
\ slide down        |--3---0---2---1---1---1---3---0---3-----3----3--|
h hammer on         |--4---1---2---3---0---2---2---0---3-----0----2--|
p pull off          |--4---2---2---3---2---2---0---0---5-----0----0--|
b bend              |--2---2---0---1---3---0-------2---5-----0-------|
                    |------0-----------------------3---3-----3-------|

Use wah pedal for this part...

e|---------------------------------------------------------------|
B|---------------------------------------------------------------|
G|-------------5------------------------------5------------------|
D|--------5/7-----5-------3--5--3--------5/7-----5--3--2--0h2p0--|
A|--3--5-------------3h5-----------3--5--------------------------|
E|---------------------------------------------------------------|

e|---------------------------------------------------------------|
B|---------------------------------------------------------------|
G|-------------5------------------------------5--7---------------|
D|--------5/7-----5-------3--5--3--------5/7--------5--3--2------|
A|--3--5-------------3h5-----------3--5----------------------5---|
E|---------------------------------------------------------------|

This part is without the wah pedal.

e|---------------------------------------------------------------|
B|---------------------------------------------------------------|
G|-------------5------------------------------5------------------|
D|--------5/7-----5-------3--5--3--------5/7-----5--3--2--0h2p0--|
A|--3--5-------------3h5-----------3--5--------------------------|
E|---------------------------------------------------------------|

e|---------------------------------------------------------------|
B|---------------------------------------------------------------|
G|-------------5------------------------------5--7---------------|
D|--------5/7-----5-------3--5--3--------5/7--------5--3--2------|
A|--3--5-------------3h5-----------3--5----------------------5---|
E|---------------------------------------------------------------|

Higher up part, just for the second part.

e|---------------------------------------------------------------|
B|-------------13-------------------------------13---------------|
G|-------12/14----12-------10h12p10-------12/14----12-10-9-7h9p7-|
D|-10-12-------------10h12----------10-12------------------------|
A|---------------------------------------------------------------|
E|---------------------------------------------------------------|




e|---------------------------------------------------------------|
B|-------------13-------------------------------13-15------------|
G|-------12/14----12-------10h12p10-------12/14-------12-10------|
D|-10-12-------------10h12----------10-12-------------------10---|
A|---------------------------------------------------------------|
E|---------------------------------------------------------------|

Chords:

Part 1:

Bm                   E                 A
Oh, what a feeling I get when I'm with you
Bm                     E              A
You take my heart into everything you do
       Bb       C           Am     Bb
And it makes me sad for the lonely people
Bb            C           Dm
I walked that road for so long
      Bb        C              Am    Bb
Now I know that I'm one of the lucky people
Bb           C         G
Your love is making me strong

Refrain:

      Dm    C      Gsus
Had enough    bad love
       Dm          C            Gsus
I need something I can be proud of
     Dm    C       Gsus
Had enough    bad love
Dm   C        Bb
  No more bad love


At the same time of the Refrain...

e|-------------------------------------------------|
B|------6b-6/8------8p6\5\3------6b-6/8--6b--5--3--|
G|--5b----------5b-----------5b--------------------|
D|-------------------------------------------------|
A|-------------------------------------------------|
E|-------------------------------------------------|

Prelude of part 2...

e|---------------------------------------------------------------|
B|---------------------------------------------------------------|
G|-------------5------------------------------5------------------|
D|--------5/7-----5-------3--5--3--------5/7-----5--3--2--0h2p0--|
A|--3--5-------------3h5-----------3--5--------------------------|
E|---------------------------------------------------------------|

e|---------------------------------------------------------------|
B|---------------------------------------------------------------|
G|-------------5------------------------------5--7---------------|
D|--------5/7-----5-------3--5--3--------5/7--------5--3--2------|
A|--3--5-------------3h5-----------3--5----------------------5---|
E|---------------------------------------------------------------|

Part 2:

Bm                       E                A
   And now I see that my life has been so blue
Bm                           E              A
   With all the heartaches I had till I met you
        Bb      C              Am    Bb
But I'm glad to say now that's all behind me
Bb         C          Dm
  With you here by my side
            Bb      C        Am   Bb
And there's no more memories to remind me
Bb                C        G
   Your love will keep me alive


Refrain (bis):


      Dm    C      Gsus
Had enough    bad love
       Dm          C            Gsus
I need something I can be proud of
     Dm    C       Gsus
Had enough    bad love

Dm   C        Bb
  No more bad love


At the same time of the Refrain...

e|-------------------------------------------------|
B|------6b-6/8------8p6\5\3------6b-6/8--6b--5--3--|
G|--5b----------5b-----------5b--------------------|
D|-------------------------------------------------|
A|-------------------------------------------------|
E|-------------------------------------------------|

I don't try to find the solo because for myself I improvise on key of D.


e|---------------------------------------------------------------|
B|---------------------------------------------------------------|
G|-------------5------------------------------5------------------|
D|--------5/7-----5-------3--5--3--------5/7-----5--3--2--0h2p0--|
A|--3--5-------------3h5-----------3--5--------------------------|
E|---------------------------------------------------------------|






e|---------------------------------------------------------------|
B|---------------------------------------------------------------|
G|-------------5------------------------------5--7---------------|
D|--------5/7-----5-------3--5--3--------5/7--------5--3--2------|
A|--3--5-------------3h5-----------3--5----------------------5---|
E|---------------------------------------------------------------|

Accompaniment for the solo...

                             D
e|---------------------------2--|
B|---------------------------3--|
G|---------------------------2--|
D|---------------------------0--|
A|--0h2h3--2--0-----------0-----|
E|---------------3--3--2--------|

I don't try to find the solo because for myself I improvise on key of D.

e|---------------------------------------------------------------|
B|---------------------------------------------------------------|
G|-------------5------------------------------5------------------|
D|--------5/7-----5-------3--5--3--------5/7-----5--3--2--0h2p0--|
A|--3--5-------------3h5-----------3--5--------------------------|
E|---------------------------------------------------------------|



e|---------------------------------------------------------------|
B|---------------------------------------------------------------|
G|-------------5------------------------------5--7---------------|
D|--------5/7-----5-------3--5--3--------5/7--------5--3--2------|
A|--3--5-------------3h5-----------3--5----------------------5---|
E|---------------------------------------------------------------|

Refrain (bis):

      Dm    C      Gsus
Had enough    bad love
       Dm          C            Gsus
I need something I can be proud of
     Dm    C       Gsus
Had enough    bad love
Dm   C        Bb
  No more bad love


At the same time of the Refrain...

e|-------------------------------------------------|
B|------6b-6/8------8p6\5\3------6b-6/8--6b--5--3--|
G|--5b----------5b-----------5b--------------------|
D|-------------------------------------------------|
A|-------------------------------------------------|
E|-------------------------------------------------|

For this last part you can improvise on key of D, and not play the solo part of the refrain.


Enjoy this tab and please rate because it's my first tab.

I'm verry sorry for my bad english I'm a french teenager and I don't speak english very well.
            
Hard to play? Try these video lessons and learn fast. | Correct




comments powered by Disqus
↑ Back to top | Tablatures and chords are parodies/interpretations of the original songs. You may use it for private study, scholarship, research or language learning purposes only