>
 >
Badge

Badge Guitar Tabs

Eric Clapton - Badge chords, tabs, tablatures, lyrics

Guitar lessons | Add/correct | Request | Top 50 tabs Artists:  A B C D E F G H I J K L M N O P Q R S T U V W X Y Z 0-9

Badge Guitar Tabs – Eric Clapton

CD, Sheet music, Poster

Do you like Badge? Share with your friends now
Bass TabsChordsTabsTabs v2
============================================================================
Album:The Cream of Eric Clapton

Tuning: Standard (E A D G B e)

Legend:
x=muted string/note
\=slide down
/=slide up
b()=fret the note before the "b", bend till it sounds like the note in ()
r=release bend
~~=vibrato
h=hammer on
p=pull off
    
                       
    [CHORD DIAGRAMS] [EADGBe]

Am: 577555  
D: 5777xx or xx0232      
Esus2: x79977   
Em:x79987    
C: x3555x    
Bm:799777
Cmaj7(sus2): x3000x
G/B: x2000x
G: 32000x

    [INTRO]

   Am                         D                  Am
e|-------------------------------------------------|----------5-----------|
B|-----x-----x-------------(7)--7--x---------------|----x-----5-----------|
G|-----x--5--x--5---x--7---(7)--7--x----x--7--x----|----x-----5-----5---7-|
D|-----x--5--x--7---x--7----x------x--7-x--7--x--7-|-7--x--7-----7--x---7-|
A|--7-----7-----7---x-------x------x----x-----x--7-|-7--x--7-----7--x-----|
E|--5--------------(5)-----------------------------|-5--------------------|

       D
e|-------------------------||
B|--x-----x-----x----------||
G|--x-----x-----x----------||
D|--x--7--x--7--x--7-------||
A|--x--5--x--5--x----------||
E|-------------------10\---||


    [VERSE]

   Am                      D                     Esus2
e|-----5-----5------------------------------------7--7--7--7--7----------|
B|-----5-----5-------------7-----7-----7----------7--7--7--7--7----------|
G|-----5-----5-------------7--7--7--7--7--7--7----9--9--9--9--9----------|
D|--------7-----7--7-------7--7--7--7--7--7--7----9--9--9--9--9----------|
A|--7-----7-----7--7--3/---5--5--5--5--5--5-------7--7--7--7--7----------|
E|--5--------------------------------------------------------------------|
1.       Thinkin' bout the times you drove in my car.___
    
    
    Em                                 Am                    D
e|--7--7--7--7--7--7--7--7-----------|-----5-----5-----5-------------------|
B|--8--8--8--8--8--8--8--8-----------|-----5-----5-----5-----7--7---7------|
G|--9--9--9--9--9--9--9--9-----------|-----5-----------5-----7--7---7--7---|
D|--9--9--9--9--9--9--9--9------5/7--|--------7-----7--------7--7---7--7---|
A|--7--7--7--7--7--7--7--7---7--5/7--|--7-----7-----7----------------------|
E|---------------------------7-------|--5----------------------------------|
                                                Thinkin' I   might havedrove

        
         Esus2                  Em
e|---------------------------------------------------------------|
B|--------7--7--7--7--7--7--7---8--8--8--8--8--8--8--8--8--------|
G|--7-----9--9--9--9--9--9--9---9--9--9--9--9--9--9--9--9--------|
D|--7--9--9--9--9--9--9--9--9---9--9--9--9--9--9--9--9--9--------|
A|--5--9--7--7--7--7--7--7--7---7--7--7--7--7--7--7--7--7--------|
E|-----7---------------------------------------------------------|
 you too far.___

    C               Am                Bm                 Am
e|-------------------5---5--5--5----------7---------------7-----------||
B|--5--5---5----5----5---5--5--5------7---7---------------5-----------||
G|--5--5---5----5----5---5--5--5------7---7---------------5-----------||
D|--5--5---5----5----7---7--7--7---9--9---9-----9--9--7---7-----------||
A|--3--3---3----3----7-------------9--9---------9--9--7---------------||
E|-------------------5----------------7------7--7--7----------0-3-4---||
      And thinkin'   love that laid  table

    [Repeat this for VERSE 2 & VERSE 3]
    


    [BRIDGE] [REPEAT 6x]

    D    Cmaj7(sus2) G/B    G       D
e|-----------------------------------------------|
B|---------------0------0------0-------3---------|
G|------2------0--------0------------2---0-------|
D|--0-4------0--------0------------0-------------|
A|---------3--------2----------------------------|
E|--------------------------3--------------------|


    [SOLO]

    D                                  Cmaj7(sus2)     G/B       G 
e|------------------------------10----------------------------10----------|
B|--13b(15)r(14)-(15)r-13b(14)------15~~---13b(15)--10--------------------|
G|-----------------------------------------------------12b(14)---12b(14)r-|
D|------------------------------------------------------------------------|
A|------------------------------------------------------------------------|
E|------------------------------------------------------------------------|

    D                                Cmaj7(sus2)                G/B
e|---------------------10----12b(13)r--10~~-----13b(15)-13b(15)-13b(14)---|
B|------------------------10-----------------12---------------------------|
G|-10b(12)-------10/11----------------------------------------------------|
D|------------12----------------------------------------------------------|
A|------------------------------------------------------------------------|
E|------------------------------------------------------------------------|

    G              D                            Cmaj7(sus2)     G/B
e|-13b(15)-13b(14)~~---10-----12b(13)r-10--12--10-12~~---10----12b(13)r---|
B|-------------------------10-------------------------------10------------|
G|------------------------------------------------------------------------|
D|------------------------------------------------------------------------|
A|------------------------------------------------------------------------|
E|------------------------------------------------------------------------|

       G       D                          Cmaj7(sus2)       G/B
e|--10h12---10~~--------10-----------14-15b(16)r-13b(15)---------15b(16)r-|
B|--------------10h12-----12/15~~-------------------------15-15~~---------|
G|------------------------------------------------------------------------|
D|------------------------------------------------------------------------|
A|------------------------------------------------------------------------|
E|------------------------------------------------------------------------|

       G       D                    Cmaj7(sus2)         G/B       G  
e|--13--15--13------17-17-17-17-17-17--15-13------------------17----------|
B|--------------15----------------------------15\------15--19----17b(19)--|
G|------------------------------------------------/16---------------------|
D|------------------------------------------------------------------------|
A|------------------------------------------------------------------------|
E|------------------------------------------------------------------------|

      D                        Cmaj7(sus2)       G/B         G
e|---------17b(19)r-------------------------------------------------------|
B|--15~~-------------17b(18)r--15-----15~~----15-15----15-15--15----------|
G|---------------------------------16------16-------16-----------16-------|
D|------------------------------------------------------------------------|
A|------------------------------------------------------------------------|
E|------------------------------------------------------------------------|

     D                    Cmaj7(sus2)        G/B       G             D  
e|--------------------------------------------------10--------------------|
B|--19--20---19-20--19-20--19-20---15h17p15-----/10----10-----------------|
G|------------------------------------------16\-----------12-10-----------|
D|--------------------------------------------------------------12p9--12~-|
A|------------------------------------------------------------------------|
E|------------------------------------------------------------------------|

                                            Am
e|--------10-------10-------------------------------|
B|--10h13----10h13--------------------10------------|
G|---------------------12p10----10----10------------|
D|---------------------------12----12-10------------|
A|---------------------------------------12~~-------|
E|--------------------------------------------------|


  The solo is probably incorrect, but I'm sure the verse
 and bridge are right. This took me forever, so please rate.

  *ROCK ON*





Comments


Popular Eric Clapton tabs & chords
Change The World Bass Tabs
Cocoaine Bass Tabs
Wonderfull Tonight Bass Tabs
Last Fair Deal Gone Down Chords
Nobody Knows You When Youre Down And Out 1 Chords
Bad Love Tabs
Roll It Over Tabs
Dont Know Why Ukulele
Let It Rain Ukulele
Miss You Ukulele


Song lyrics



↑ Back to top | Tablatures and chords are parodies/interpretations of the original songs. You may use it for private study, scholarship, research or language learning purposes only
© 2014 AZChords.com Contact us | Privacy policy | DMCA | Add/correct tabs | Request tabs | Top 50 tabs