» » »

Alberta Tabs (ver.1)

Artists:  A B C D E F G H I J K L M N O P Q R S T U V W X Y Z # 

Alberta Tabs (ver.1)

Eric Clapton
Rating:
4/5 (3 votes)

Tabs too difficult? Try these video lessons and learn fast.
                Intro
                                  C
|-----------------------0-----|---0---------0--0---0--0--0--0--0--0---0---|
|-----------------------0-----|---1---------1--1---1--1--1--1--1--1---0---|
|-----------------------0-----|---0---------0--0---0--0--0--0--0--0---0---|
|-----------------------0-----|---2-----2---2------2-----2--2--2------0---|
|-----------------------------|---3-----3----------------3--3--2------0---|
|----0----0--1---1--2---------|---------------------------------------0---|

    G
|--------3---3----------------------------------------------------|
|--------0---0----------------------------------------------------|
|---0----0---0---------------------------0-------0------0-----0---|
|---0----0---0-------------0---0----0/2------2------2---------0---|
|---2-------------0/2---------------------------------------------|
|---3-------------------------------------------------------------|

     C                    G
|----0----0---0---0-----------3---3------------------------------|
|----1----1---1---1---0---0---0---0------------------------------|
|----0----0---0---0---0---0---0---0------------------------------|
|----2----2---2---2---0---0---0---0------------------------------|
|----3----3---3---3---0---2--------------------0---------2-------|
|-------------------------3---------------3----------------------|


|-----------0----------------------------------------------------|
|-----------1--------(1)--------------1------1-------------------|
|---------------------0---------------3------3-------------------|
|---------------------2---------------2------0-------------------|
|---3------------------------3---------------3-------3--------1--|
|----------------------------------------------------------------|

     F
|----1--1---1---1---1---1---1---1---1---1----|           ---0---|
|----1--1---1---1---1---1---1---1---1---1----|           ---0---|
|----2--2---2---2---2---2---2---2---2---2----|           ---0---|
|----3--3---3---3---3---3---3---3---3---3----|           ---0---|
|--------------------------------------------|           -------|
|-1-----1-------1---------------1------------|  x 2,add  -------|

     C                 G
|----0----0--------------3------------------|
|----1----1--------------0------------------|
|----0----0--------------0------------------|
|----2----2--------------0------------------|
|----3----3---3--2--0--------------0---2----|
|----------------------3------3-------------|

    C
|---------0----------------------------------------------------|
|---------1----------------------------------------------------|
|------------------------0-----0/2------0---------------0------|
|--------------0\2-----------------------------0\2-------------|
|---3----------------------------------------------------------|
|--------------------------------------------------------------|

**Strum G X11-15, let ring**

|----------------------------------------------|
|----------------------------------------------|
|---------------------0---2--------------------|
|--------0---0---0\2------------0/1------------|
|--------------------------------------3---0---|
|----------------------------------------------|

|---------0-----------------------1----1---1---1---1---1-----0----|
|---------1-----------------------1----1---1---1---1---1-----1----|
|---------0-----------------------2----2---2---2---2---2-----0----|
|---------2-------0------2--------3----3---3---3---3---3-----2----|
|---3---------3----------------------------------------------3----|
|------------------------------------------------------------0----|
            
Tabs too difficult? Try these video lessons and learn fast.




comments powered by Disqus
↑ Back to top | Tablatures and chords are parodies/interpretations of the original songs. You may use it for private study, scholarship, research or language learning purposes only