» » »

After Midnight Bass tabs (ver.2)

Artists:  A B C D E F G H I J K L M N O P Q R S T U V W X Y Z # 

After Midnight Bass tabs (ver.2)

Eric Clapton
Rating:
0/5 (0 votes)
Tabs too difficult? Try these video lessons and learn fast.
                ERIC CLAPTON - AFTER MIDNIGHT

INTRO:

G--------------|
D--------------|
A-3------------|
E--------------|

G-------------------------------------------------|
D-----1-3-1-------1-3-1-------1-3-1-------1-3-1---|
A-3-3-------1-3-3-------1-3-3-------1-3-3-------1-|
E-------------------------------------------------|

VERSE:

G------------------------------------------------------|
D-------------1-1--3-3-3-------------------------------|
A-3---3-3---3------------3---1-3-3---1-3-3---1-3-3---1-|
E---3-----3----------------3-------3-------3-------3---|

G-------------------------------------------------------|
D---------------1-1---3---3---2-3-2---3-3-2---2-3-2---3-|
A-3-3---3-3---3-----1---3---3-------3-------3-------3---|
E-----3-----3-------------------------------------------|

G---------------------------------------------------|
D-5-0-4-5-4-0-4-5-0-4-5-4-3-1-------------1-1-3-3-3-|
A-----------------------------3---3-1---3-----------|
E-------------------------------3-----3-------------|

G---------------------------------|
D-----------------------------1-3-|
A-3---1-3-1---1-3-1---3-1---3-----|
E---3-------3-------3-----3-------|
            
Tabs too difficult? Try these video lessons and learn fast.


comments powered by Disqus
↑ Back to top | Tablatures and chords are parodies/interpretations of the original songs. You may use it for private study, scholarship, research or language learning purposes only