>
 >
A Certain Girl

A Certain Girl Guitar Tabs

Eric Clapton - A Certain Girl chords, tabs, tablatures, lyrics

Guitar lessons | Add/correct | Request | Top 50 tabs Artists:  A B C D E F G H I J K L M N O P Q R S T U V W X Y Z 0-9

A Certain Girl Guitar Tabs – Eric Clapton

CD, Sheet music, Poster

Do you like A Certain Girl? Share with your friends now
Tabs
     H        E   E  E   E      E   E  E   S   S   E   E    E  E   
E||-------------------------|----------8--------------------------|
B||------------------8--10--|--10b--L--8--------------------------|
G||------------------8--10--|--10b--L-----10br-L-(10)--8b---------|
D||--------------10---------|------------------------------10--8--|
A||-------------------------|-------------------------------------|
E||-------------------------|-------------------------------------|


   E   E   E   E   E   E   E   E       Q    E  E  Q    E  E   
----------------------------------||-------------------------|
----------------------------------||-------------------------|
------10--10--10--10--10--10--10--||*------------------------|
--10---9---9---9---9---9---9---9--||*-------------5----------|
------10--10--10--10--10--10--10--||---3----6--7-------6--7--|
----------------------------------||-------------------------|


  Q    E  E  Q    E  E     Q    E  E  Q    E  E     Q    E  E  Q    E  E   
------------------------|------------------------|------------------------|
------------------------|------------------------|------------------------|
------------------------|------------------------|------------------------|
-------------5----------|-------------5----------|-------------5----------|
--3----6--7-------6--7--|--3----6--7-------6--7--|--3----6--7-------6--7--|
------------------------|------------------------|------------------------|


  Q    E  E  Q    E  E     Q    E  E  Q    Q        W                 
------------------------|------------------------|-------------------|
------------------------|------------------------|-------------------|
------------------------|------------------------|-------------------|
-------------5----------|------------------------|-------------------|
--3----6--7-------6--7--|-------3--4--5----3b----|-------------------|
------------------------|--5---------------------|-------------------|


  W                   W                   Q    E  E  Q    E  E   
-------------------|-------------------|------------------------|
-------------------|-------------------|------------------------|
-------------------|-------------------|------------------------|
-------------------|-------------------|-------------5----------|
-------------------|-------------------|--3----6--7-------6--7--|
-------------------|-------------------|------------------------|


  Q    E  E  Q    E   E     Q    E  E  Q    E  E     Q    E  E  Q    E  E     
-------------------------|------------------------|-------------------------||
-------------------------|------------------------|-------------------------||
-------------------------|------------------------|------------------------*||
-------5-----3----3p--1--|-------------5----------|-------------5----------*||
-------------------------|--3----6--7-------6--7--|--3----6--7-------6--7---||
--3-------3--------------|------------------------|-------------------------||


  H        E  E    E  E      Q     Q      Q      Q      
----------------------8--|-----------------------------|
--------------8h--10-----|--13----13~----13~----13~----|
-------------------------|-----------------------------|
-------------------------|-----------------------------|
-------------------------|-----------------------------|
-------------------------|-----------------------------|


   Q      Q      Q      Q         Q     E   E  E   E   Q     
------------------------------|--11--------11--L------11----|
--13~----13~----13~----13~----|--------13---------13--------|
------------------------------|-----------------------------|
------------------------------|-----------------------------|
------------------------------|-----------------------------|
------------------------------|-----------------------------|


  E   E   Q      S      S   E   E   E      Q     E   E    E  E   E  E   
-----13b--L----(13)br-(13)-11----------|-------------------------------|
-------------------------------13--11--|--13----11---------------------|
---------------------------------------|------------12p--10--8------8--|
---------------------------------------|------------------------10-----|
---------------------------------------|-------------------------------|
---------------------------------------|-------------------------------|


   S  S E  E   E   E  E   S   S E     E   E   E  E   E  E   E   E   
-----------8----------8------------|-------------------------------|
--------8-----11b--L-----10br-L-L--|---------10---------8--10b--L--|
--10b-L----------------------------|--8------10--8------8--10b--L--|
-----------------------------------|-----10---------10-------------|
-----------------------------------|-------------------------------|
-----------------------------------|-------------------------------|


   E   E   E   E   E   E   E  E     Q    E   E  E  E  E  E   
---------------------------------|--5-----------------------|
--10b--L--10b--L--10b--L--10-----|--5-----------------------|
--10b--L--10b--L--10b--L--10-----|-------7b--L--7--5-----5--|
---------------------------------|--------------------7-----|
---------------------------------|--------------------------|
---------------------------------|--------------------------|


  E  E   E  E  E   S  S  E  E      E  E  S S E  S  S E  E  E    
------------8-----10b-L-10--8--|------------------------5------|
-----8--10---------------------|--10--8--------------5-----8b--|
--9----------------------------|---------9-7-5--7b-L-----------|
-------------------------------|-------------------------------|
-------------------------------|-------------------------------|
-------------------------------|-------------------------------|


  E  E  S   S  E   E  E  E  E     Q     Q     E   E   E   E   
-----5-------------------------|--8----------11------13--11--|
--L-------------------------8--|-------13--------13----------|
--------7br-L-(7)--5-----9-----|-----------------------------|
----------------------7--------|-----------------------------|
-------------------------------|-----------------------------|
-------------------------------|-----------------------------|


  E   S  S S  S  E   E   E   E   E      Q      E   E   E  E   E  E   
-----13b-L-L-13b-L--13--11----------|-------------------------------|
----------------------------13--11--|--13~----11--------------------|
------------------------------------|-------------12--10--8---------|
------------------------------------|------------------------10--8--|
------------------------------------|-------------------------------|
------------------------------------|-------------------------------|


   Q    Q    H           Q    E  E  Q    E  E     Q    E  E  Q    E  E   
----------------------|------------------------|------------------------|
----------------------|------------------------|------------------------|
----------------------|------------------------|------------------------|
--10------------------|-------------5----------|-------------5----------|
----------------------|--3----6--7-------6--7--|--3----6--7-------6--7--|
----------------------|------------------------|------------------------|


  Q    E  E  Q    E  E     Q    E  E  H           W                  
------------------------|----------------------|-------------------||
------------------------|----------------------|-------------------||
------------------------|----------------------|-------------------||
-------------5----------|----------------------|-------------------||
--3----6--7-------6--7--|--3----1--3--L--------|-------------------||
------------------------|----------------------|-------------------||




Duration Legend
---------------
W - whole
H - half
Q - quarter
E - 8th
S - 16th
T - 32nd
X - 64th
. - note dotted
|-n-|  - n-tuplets


Tablature Legend
----------------
L - tied note
x - dead note
g - grace note
(n) - ghost note
> - accentuded note
NH - natural harmonic
AH - artificial harmonic
TH - tapped harmonic
SH - semi harmonic
PH - pitch harmonic
h - hammer on
p - pull off
b - bend
br - bendRelease
pb - preBend
pbr - preBendRelease
brb - bendReleaseBend
\n/ - tremolo bar dip
\n - tremolo bar dive
-/n - tremolo bar Release up
/n\ - tremolo bar inverted dip
/n - tremolo bar return
-\n - tremolo bar Release down
S - shift slide
s - legato slide
/ -  slide into from below or out of upwards
\ -  slide into from above or out of downwards
~ - vibrato
W - wide vibrato
tr - trill
TP - tremolo picking
T - tapping
S - slap
P - pop
< - fade in
^ - brush up
v - brush down





Comments


Popular Eric Clapton tabs & chords
I Can't Stand It Chords
Bad Love Tabs
Danny Boy 1 Tabs
It Hurts Me Too Tabs
Knockin' On Heaven's Door Tabs
Reconsider Baby Intro Tabs
Tears In Heaven 4 Tabs
Back Home Ukulele
I Shot The Sheriff Ukulele
Let It Grow Ukulele


Song lyrics



↑ Back to top | Tablatures and chords are parodies/interpretations of the original songs. You may use it for private study, scholarship, research or language learning purposes only
© 2014 AZChords.com Contact us | Privacy policy | DMCA | Add/correct tabs | Request tabs | Top 50 tabs