» » »

Eric Bibb, I Hear The Angels Singing Tabs (ver.1)

Artists:  A B C D E F G H I J K L M N O P Q R S T U V W X Y Z # 

I Hear The Angels Singing Tabs (ver.1)

Eric Bibb Tabs
Rating:
0/5 (0 votes)
I Hear The Angels Singing lessons Tabs too difficult? Try these video lessons and learn fast
                This is just the main lick that is repeated throughout the whole song. I tabbed it out 


Watch the video for the correct picking pattern. Eric plays this song with a capo on the 
fret.

-3-------0------------3-|
-1-------0------------1-|
-0-------0------------0-|     x2
-2-------2----2p0-----2-|
-3-------2---------3--3-|
-x-------0------------x-|
Cmaj     Em          Cmaj

-3------0-----------2-------0----------|
-1------0-----------0-------0----------|
-0------0-----------2-------0----------|
-0------2-----------1--0h1--2---2p0----|  Repeat a million times
-3------2----0-1-2--2-------2-------3--|
-x------0--3--------x-------0----------|
Cmaj    Em         B7       Em

Enjoy!
            

comments powered by Disqus
↑ Back to top | Eric Bibb Tabs for I Hear The Angels Singing. Lyrics for acoustic guitar and electric guitar. Tablatures and chords are parodies/interpretations of the original songs. You may use it for private study, scholarship, research or language learning purposes only