» » »

Torpedo Bass tabs (ver.1)

Artists:  A B C D E F G H I J K L M N O P Q R S T U V W X Y Z # 

Torpedo Bass tabs (ver.1)

Eraserheads
Rating:
0/5 (0 votes)

Tabs too difficult? Try these video lessons and learn fast.
                -----------------------------------------------------------------------------
TORPEDO - Eraserheads
-----------------------------------------------------------------------------


Tuning: Standard

Verse: “Hindi ko kayang sabihin ang aking nadarama…”

G|-----10/13-10~--12\9-9~--10~------|
D|------------------------------10~-|
A|-6~-------------------------------|
E|----------------------------------|

Chorus: “Huwag mo na akong pilitin…”

G|--------------------------------------------------------------------------|
D|--------------------------------------------------------------------------|
A|--------------------------------------------------------------------------|
E|-5-5-5--5-5-5--5-5-5--5-5-5--1-1-1--1-1-1--1-1-1--1-1-1--5-5-5--5-5-5--5--|

G|--------------------------------------------------------------------------|
D|--------------------------------------------------------------------------|
A|--------------------------------------------------------------------------|
E|-5-5--5-5-5--1-1-1--1-1-1--1-1-1--1-1-1--5-5-5--5-5-5--5-5-5--5-5-5--6-6--|

G|--------------------------------------------------------------------------|
D|--------------------------------------------------------------------------|
A|-------------------------5-5-5--5-5-5--5-5-5--5-5-5-----------------------|
E|-6--6-6-6--6-6-6--6-6-6------------------------------5-5-5-5-5-5-5-5--3-3-|

Verse: “Pasensiya na kung ikaw ay naiinis…”

G|----------------------------------------------------------------------|
D|----------------------------------------------------------------------|
A|-2-2--2-2--0h2-2--2-2--2/4-4--4-4--2/4-4--4-4--0h3-3--3-3--0h3-3--3-3-|
E|----------------------------------------------------------------------|

G|----------------------| Repeat this tab twice then…
D|----------------------|
A|-2-2--2-2--0h2-2--2-2-|
E|----------------------|

Solo:

G|-------6-6/8--------6-6/8--------6-6/8-| Repeat     G|---| Repeat Chorus
D|-9-7-6--------9-7-6--------9-7-6-------| this tab   D|-7-| then…
A|---------------------------------------| five times A|---| Repeat Verse 2
E|---------------------------------------| then…      E|---| then…

Repeat Solo then…
Repeat Verse 2 many times then…

End:

G|------------|
D|------------|
A|-4~--3~--2~-|
E|------------|
            
Tabs too difficult? Try these video lessons and learn fast.




comments powered by Disqus
↑ Back to top | Tablatures and chords are parodies/interpretations of the original songs. You may use it for private study, scholarship, research or language learning purposes only